Song name
# A B C D E F G H I J K L M N O P Q R S T U V W X Y Z

Blindside - You Can Hide It tab

Album: Silence
Tabbed By: Brian
Tuning: Drop D-flat (Db,Ab,Db,Gb,Bb,Eb)

Ok people, heres the story. This is my first ever tab (unless you count the one that I
to do Chop Suey! but got the tuning completely messed up) so don't be too hard on it. I'd
like any comments or constructional criticism to help me in my later tabs. This song's 
easy, but no one's ever tabbed it before so I thought I'd try. Note:some notes are
because you can't hear them, and some strums are off so just make this song your own.
You can email me at bb42392@aim.com

/=slide

//Edit\\8-6-06 I changed the ending of the intro/verse

Intro/Verse 1 (2x)
-|-----------------------------------------------------------------------|
-|-----------------------------------------------------------------------|
-|-----------------------------------------------------------------------|
-|-9-9-9-9-10-10-9-9-10-10-9-7-12-7-6-7-6-6-6-6-7-7-6-6-6-6-7-7-9-7-9-10-|
-|-----------------------------------------------------------------------|
-|-----------------------------------------------------------------------|

"To Arrive and Leave With Style"
-|--------------------|
-|--------------------|
-|-14-14-14-14-13-13--|
-|-14-14-14-14-13-13--|
-|--------------------|
-|--------------------|

Chorus (There is a lot of noise in this part, sounds pretty close though)
-|--------------------------------------------------------------------|
-|--------------------------------------------------------------------|
-|-5-5-5-5-5------------5-5-5-5-5------------------5-5-5-5-5----------|
-|-5-5-5-5-5---2-2--2---5-5-5-5-5---2-2--4-5-7-2---5-5-5-5-5---2-2--2-|
-|-3-3-3-3-3---2-2--2---3-3-3-3-3---2-2--4-5-7-2---3-3-3-3-3---2-2--2-|
-|-------------2-2--2---------------2-2--4-5-7-2---------------2-2--2-|

 ---------------------------|
 ---------------------------|
 -5-5-5-5-5-----------------|
 -5-5-5-5-5---2-2--2-5-7-2--|
 -3-3-3-3-3---2-2--2-5-7-2--|
 -------------2-2--2-5-7-2--|

Intro/Verse 2 (This is same as Intro/Verse 1)

"To Arrive and Leave With Style"

Chorus

Solo or Bridge or whatever you call it (2x)
-|------------------------------------------|
-|------------------------------------------|
-|------------------------------------------|
-|-7/9-9/10-6/7-5-------7/9-9/10-6/7-5------|
-|----------------5-7------------------5-3--|
-|------------------------------------------|

Then..."Hide it, FIGHT IT!"
-|------------|
-|------------|
-|-5-5---5-5--|
-|-5-5---5-5--|
-|-3-3---3-3--|
-|------------|

Chorus (this one is just missing the beginning of the other choruses)
-|----------------------------------------------------------------------|
-|----------------------------------------------------------------------|
-|----------5-5-5-5-5------------------5-5-5-5-5-------------5-5-5-5-5--|
-|-2-2--2---5-5-5-5-5---2-2--4-5-7-2---5-5-5-5-5---2-2--2----5-5-5-5-5--|
-|-2-2--2---3-3-3-3-3---2-2--4-5-7-2---3-3-3-3-3---2-2--2----3-3-3-3-3--|
-|-2-2--2---------------2-2--4-5-7-2---------------2-2--2---------------|

Ending (Outro)
-|------------|
-|------------|
-|------------|
-|-2-2-5-7-2--|
-|-2-2-5-7-2--|
-|-2-2-5-7-2--|
Tap to rate this tab
# A B C D E F G H I J K L M N O P Q R S T U V W X Y Z