Song name
# A B C D E F G H I J K L M N O P Q R S T U V W X Y Z

Blindsight - Etheral Flame tab

Help us improve GuitareTab! Take a short survey!
Chorus

Guitar 1 & 2
---------------------------------------------------------
---------------------------------------------------------
----------------88888---777777777------------------------
----55555-------66666---555555555------------------------
----33333-------66666---555555555------------------------
----33333------------------------------------------------

Guitar 2

---------------------------------------------------------
---------------------------------------------------------
----------------------------12121212----141414-----------
---------------------------------------------------------
----------------------------10101010----121212-----------

then

---------------------------------------------------------
---------------------------------------------------------
---------------------------17171717------191919----------
---------------------------------------------------------
---------------------------15151515------171717----------

listen for timings



Heavy Verse
PM.......................................................
---------------------------------------------------------
---------------------------------------------------------
---------------------------------------------------------
--22222222---44444444-666666666666---7-5-3-0-------------
--22222222---44444444-666666666666---7-5-3-0-------------
--22222222---44444444-666666666666---7-5-3-0-------------


Outro

xxxx---xxxx---xxxx---xxxx------------ --------------------
xxxx---xxxx---xxxx---xxxx------------ --------------------
xxxx---xxxx---xxxx---xxxx------------x4-------------------
xxxx-2-xxxx-4-xxxx-6-xxxx----7-5-3-0- --------------------
xxxx-2-xxxx-4-xxxx-6-xxxx----7-5-3-0- --------------------
xxxx-2-xxxx-4-xxxx-6-xxxx----7-5-3-0- ----7-5-3-2-0-------
Related for Etheral Flame tab