Song name
# A B C D E F G H I J K L M N O P Q R S T U V W X Y Z

Blindspott - Yours Truly tab

Help us improve GuitareTab! Take a short survey!
YOURS TRULY
-----------
Artist - Blindspott
Album - End The Silence
Guitarists - Marcus Powell & Brandon Reihana
Tab By - Jeremy Buswell (jeremy_buswell@hotmail.com)

Tuning: 7 String (Low To High) A E A D G B E 
____________________________________________________________________________

INTRO [CLEAN - Fade In]
E -0---------------|
B -4---------------|
G -6---------------|
D -----------------|
A -----------------|
E -----------------|
A -----------------|
   1 + 2 + 3 + 4 + |

GUITAR 1 [DISTORTED - Play Twice]                                                                  
E -----------------|-----------------|-00000000---0000-|-00000000---0000-|    
B -----------------|-----------------|-00000000---0000-|-00000000---0000-| 
G -----------------|-----------------|-22222222---2222-|-22222222---2222-| 
D -----------------|-----------------|-22222222---2222-|-22222222---2222-| 
A -44444444---4444-|-44444444---4444-|-00000000---0000-|-00000000---0000-|  
E -44444444---4444-|-44444444---4444-|-----------------|-----------------| 
A -44444444---4444-|-44444444---4444-|-----------------|-----------------| 
   1 + 2 + 3 + 4 + | 1 + 2 + 3 + 4 + | 1 + 2 + 3 + 4 + | 1 + 2 + 3 + 4 + | 
GUITAR 2 [DISTORTED - Play Twice]                                                                    
E -----------------|-----------------|-----------------|-----------------| 
B -----------------|-----------------|-----------------|-----------------| 
G -----------------|-----------------|-----------------|-----------------| 
D -----------------|-----------------|-----------------|-----------------| 
A -74447444---4744-|-74447444---4744-|-----------------|-----------------| 
E -----------------|-----------------|-----------------|-----------------|
A -----------------|-----------------|-20002000---0200-|-20002000---0200-|
   1 + 2 + 3 + 4 + | 1 + 2 + 3 + 4 + | 1 + 2 + 3 + 4 + | 1 + 2 + 3 + 4 + |

FIRST VERSE
GUITAR 1 [CLEAN W/ SLIGHT DELAY]
E -----------------|-----------------|-----------------|-------------12--|
B -----------------|-------------12--|-----------------|-----------------|
G -------------13--|-----------------|-13----------11--|-14--------------|
D -----11----11----|----------/11----|-----------14----|-----------14----|
A -----------------|-----------------|-----------------|-----------------| 
E -----------------|-----------------|-----------------|-----------------|
A -----------------|-----------------|-----------------|-----------------|
   1 + 2 + 3 + 4 + | 1 + 2 + 3 + 4 + | 1 + 2 + 3 + 4 + | 1 + 2 + 3 + 4 + |
GUITAR 2 [DISTORTED - Fade out after 2 bars]           [CLEAN]
E -----------------|-----------------|-----------------|-----------------|
B -----------------|-----------------|-----------------|-------0---------|
G -----------------|-----------------|-----------------|-----------------|
D -----------------|-----------------|-----------------|-----------------|
A -4---------------|-----------------|-----------------|-----------------| 
E -4---------------|-----------------|-----------------|-----------------| 
A -4---------------|-----------------|-----------------|-----------------| 
   1 + 2 + 3 + 4 + | 1 + 2 + 3 + 4 + | 1 + 2 + 3 + 4 + | 1 + 2 + 3 + 4 + |

GUITAR 1 [CLEAN W/ SLIGHT DELAY]
E -----------------|-----------------|-----------------|-------------12--|
B -14--------------|-------------12--|-----------------|-----------------|
G -------------13--|-----------------|-13----------11--|-13--------------|
D -----------11----|-13-------/11----|-----------14----|-----------14----|
A -----------------|-----------------|-----------------|-----------------| 
E -----------------|-----------------|-----------------|-----------------|
A -----------------|-----------------|-----------------|-----------------|
   1 + 2 + 3 + 4 + | 1 + 2 + 3 + 4 + | 1 + 2 + 3 + 4 + | 1 + 2 + 3 + 4 + |
GUITAR 2 [CLEAN]
E -----------------|-----------------|-----------------|-----------------|
B -----------------|-----------------|-----------------|-----------------|
G -----------------|-------2---------|-----------------|-----------------|
D -----------------|-----------------|-----------------|-------2---------|
A -----------------|-----------------|-----------------|-----------------| 
E -----------------|-----------------|-----------------|-----------------| 
A -----------------|-----------------|-----------------|-----------------|
   1 + 2 + 3 + 4 + | 1 + 2 + 3 + 4 + | 1 + 2 + 3 + 4 + | 1 + 2 + 3 + 4 + |

GUITAR 1 [CLEAN W/ SLIGHT DELAY]
E -11--------------|
B -----------------|
G -----------------|
D -----------------|
A -----------------| 
E -----------------|
A -----------------|
   1 + 2 + 3 + 4 + |

CHORUS
GUITAR 1 [DISTORTED - Play Twice] 
E -----------------|---------------------------------|-----------------|-----------------|
B -----------------|---------------------------------|-----------------|-----------------|
G -----------------|-14141414141414131313131313131313|-----------------|-----------------|
D -----------------|-x-x-x-x-x-x-x-x-x-x-x-x-x-x-x-x-|-----------------|-----------------|
A -4---4--4-44-7-7-|-12121212121212111111111111111111|-0---0--0-00-0-0-|-2---2--2-22-2-2-| 
E -4---4--4-44-7-7-|---------------------------------|-0---0--0-00-0-0-|-2---2--2-22-2-2-|
A -4---4--4-44-7-7-|---------------------------------|-0---0--0-00-0-0-|-2---2--2-22-2-2-|
   1 + 2 + 3 + 4 + | 1 e + a 2 e + a 3 e + a 4 e + a | 1 + 2 + 3 + 4 + | 1 + 2 + 3 + 4 + |
GUITAR 2 [DISTORTED - Play Twice]
E -----------------|-----------------|-----------------|-----------------|
B -----------------|-----------------|-----------------|-----------------|
G -----------------|-----------------|-----------------|-----------------|
D -----------------|-4---4--4-44-4-4-|-----------------|-----------------|
A -4---4--4-44-7-7-|-4---4--4-44-4-4-|-0---0--0-00-0-0-|-2---2--2-22-2-2-| 
E -4---4--4-44-7-7-|-2---2--2-22-2-2-|-0---0--0-00-0-0-|-2---2--2-22-2-2-|
A -4---4--4-44-7-7-|-----------------|-0---0--0-00-0-0-|-2---2--2-22-2-2-|
   1 + 2 + 3 + 4 + | 1 + 2 + 3 + 4 + | 1 + 2 + 3 + 4 + | 1 + 2 + 3 + 4 + |

BREAK 1
GUITAR 1 [DISTORTED]                                                                  
E -----------------|-----------------|-00000000---0000-|-00000000--------|    
B -----------------|-----------------|-00000000---0000-|-00000000--------| 
G -----------------|-----------------|-22222222---2222-|-22222222--------| 
D -----------------|-----------------|-22222222---2222-|-22222222--------| 
A -44444444---4444-|-44444444---4444-|-00000000---0000-|-00000000--------|  
E -44444444---4444-|-44444444---4444-|-----------------|-----------------| 
A -44444444---4444-|-44444444---4444-|-----------------|-----------------| 
   1 + 2 + 3 + 4 + | 1 + 2 + 3 + 4 + | 1 + 2 + 3 + 4 + | 1 + 2 + 3 + 4 + | 
GUITAR 2 [DISTORTED]                                                                    
E -----------------|-----------------|-----------------|-----------------| 
B -----------------|-----------------|-----------------|-----------------| 
G -----------------|-----------------|-----------------|-----------------| 
D -----------------|-----------------|-----------------|-----------------| 
A -74447444---4744-|-74447444---4744-|-----------------|-----------------| 
E -----------------|-----------------|-----------------|-----------------|
A -----------------|-----------------|-20002000---0200-|-20002000---0000-|
   1 + 2 + 3 + 4 + | 1 + 2 + 3 + 4 + | 1 + 2 + 3 + 4 + | 1 + 2 + 3 + 4 + |

SECOND VERSE
GUITAR 1 [CLEAN W/ SLIGHT DELAY]
E -----------------|-----------------|-----------------|-----------------|
B -----------------|-----------------|-----------------|-----------------|
G -8---------------|-----------------|-----------------|-----------------|
D -11--------------|-----------------|-11--------------|-----------------|
A -----------------|-----------------|-12--------------|-----------------|
E -----------------|-----------------|-----------------|-----------------|
A -----------------|-----------------|-----------------|-----------------|
   1 + 2 + 3 + 4 + | 1 + 2 + 3 + 4 + | 1 + 2 + 3 + 4 + | 1 + 2 + 3 + 4 + |
GUITAR 2 [CLEAN]
E -----------------|-----------------|-----------------|-----------------|
B -----------------|-----------------|-----------------|-----------------|
G -----------------|-----------------|-----------------|-----------------|
D -----------------|--------2--------|-----------------|--------2--------|
A -----------------|-----------------|-0---------------|-----------------|
E -9---------------|-------------4---|-----------------|-------------4---|
A -----------------|-----------------|-----------------|-----------------|
   1 + 2 + 3 + 4 + | 1 + 2 + 3 + 4 + | 1 + 2 + 3 + 4 + | 1 + 2 + 3 + 4 + |

GUITAR 1 [CLEAN W/ SLIGHT DELAY]
E -----------------|-----------------|-----------------|-----------------|
B -----------------|-----------------|-----------------|-----------------|
G -8---------------|-----------------|-----------------|-----------------|
D -11--------------|-----------------|-11--------------|-----------------|
A -----------------|-----------------|-12--------------|-----------------|
E -----------------|-----------------|-----------------|-----------------|
A -----------------|-----------------|-----------------|-----------------|
   1 + 2 + 3 + 4 + | 1 + 2 + 3 + 4 + | 1 + 2 + 3 + 4 + | 1 + 2 + 3 + 4 + |
GUITAR 2 [CLEAN]
E -----------------|-----------------|-----------------|-----------------|
B -----------------|-----------------|-----------------|-----------------|
G -----------------|--------2--------|-----------------|-----------------|
D -----------------|-------------2---|-----------------|-----------------|
A -----------------|-----------------|-0---------------|-----------------|
E -9---------------|-----------------|-----------------|-----------------|
A -----------------|-----------------|-----------------|-----------------|
   1 + 2 + 3 + 4 + | 1 + 2 + 3 + 4 + | 1 + 2 + 3 + 4 + | 1 + 2 + 3 + 4 + |

GUITAR 1 [CLEAN W/ SLIGHT DELAY]
E -----------------|
B -----------------|
G -8h9--(8h9---8h9)| Only first two notes are picked
D -----------------| The rest is delay
A -----------------| 
E -----------------|
A -----------------|
   1 + 2 + 3 + 4 + |
GUITAR 2 [CLEAN]
E -0---------------|
B -4---------------|
G -6---------------|
D -----------------|
A -----------------| 
E -----------------|
A -----------------|
   1 + 2 + 3 + 4 + |

Repeat CHORUS

BREAK 1
GUITAR 1 [DISTORTED] 
                   |------------Repeat-1x------------|
E -----------------|---------------------------------|---------------------------------|
B -----------------|---------------------------------|---------------------------------|
G -6666666666669999|-14141414141414131313131313131313|-111111111111119-9-9-9-9-9-9-9-9-|
D -x-x-x-x-x-x-x-x-|-x-x-x-x-x-x-x-x-x-x-x-x-x-x-x-x-|-x-x-x-x-x-x-x-x-x-x-x-x-x-x-x-x-|
A -4444444444447777|-12121212121212111111111111111111|-9-9-9-9-9-9-9-7-7-7-7-7-7-7-7-7-| 
E -----------------|---------------------------------|---------------------------------|
A -----------------|---------------------------------|---------------------------------|
   1 + 2 + 3 + 4 + | 1 e + a 2 e + a 3 e + a 4 e + a | 1 e + a 2 e + a 3 e + a 4 e + a |
GUITAR 2 [DISTORTED]
E -----------------|-----------------|-----------------|-----------------|
B -----------------|-----------------|-----------------|-----------------|
G -----------------|-----------------|-----------------|-----------------|
D -----------------|-4---4--4-44-4-4-|-----------------|-----------------|
A -4---4--4-44-7-7-|-4---4--4-44-4-4-|-0---0--0-00-0-0-|-2---2--2-22-2-2-| 
E -4---4--4-44-7-7-|-2---2--2-22-2-2-|-0---0--0-00-0-0-|-2---2--2-22-2-2-|
A -4---4--4-44-7-7-|-----------------|-0---0--0-00-0-0-|-2---2--2-22-2-2-|
   1 + 2 + 3 + 4 + | 1 + 2 + 3 + 4 + | 1 + 2 + 3 + 4 + | 1 + 2 + 3 + 4 + |

GUITAR 1 [DISTORTED] 
                   |------------Repeat-1x------------|
E -----------------|---------------------------------|---------------------------------|---|
B -----------------|---------------------------------|---------------------------------|---|
G -8888888888889999|-14141414141414131313131313131313|-111111111111119-9-9-9-9-9-9-9-9-|-6-| Hold last chord 
D -x-x-x-x-x-x-x-x-|-x-x-x-x-x-x-x-x-x-x-x-x-x-x-x-x-|-x-x-x-x-x-x-x-x-x-x-x-x-x-x-x-x-|-x-| over first 2 bars
A -6666666666667777|-12121212121212111111111111111111|-9-9-9-9-9-9-9-7-7-7-7-7-7-7-7-7-|-4-| of BRIDGE
E -----------------|---------------------------------|---------------------------------|---|
A -----------------|---------------------------------|---------------------------------|---|
   1 + 2 + 3 + 4 + | 1 e + a 2 e + a 3 e + a 4 e + a | 1 e + a 2 e + a 3 e + a 4 e + a |

GUITAR 2 [DISTORTED]
E -----------------|-----------------|-----------------|-----------------|---|
B -----------------|-----------------|-----------------|-----------------|---|
G -----------------|-----------------|-----------------|-----------------|---|
D -----------------|-4---4--4-44-4-4-|-----------------|-----------------|---| Hold last chord 
A -4---4--4-44-7-7-|-4---4--4-44-4-4-|-0---0--0-00-0-0-|-2---2--2-22-2-2-|-4-| over first 2 bars
E -4---4--4-44-7-7-|-2---2--2-22-2-2-|-0---0--0-00-0-0-|-2---2--2-22-2-2-|-4-| of BRIDGE
A -4---4--4-44-7-7-|-----------------|-0---0--0-00-0-0-|-2---2--2-22-2-2-|-4-|
   1 + 2 + 3 + 4 + | 1 + 2 + 3 + 4 + | 1 + 2 + 3 + 4 + | 1 + 2 + 3 + 4 + |

BRIDGE
GUITAR 1 [CLEAN]
E -----------------|-4---------------|-----------------|-----------------|
B ----4--5----5----|----5----4--5--4-|-----------------|-----------------| Hold the chord here
G -6-------6-----6-|-------6---------|-6---------------|-----------------| and arpeggiate it
D -----------------|-----------------|-----------------|-----------------| so the notes ring out.
A -----------------|-----------------|-----------------|-----------------| Same in following 
E -----------------|-----------------|-----------------|-----------------| 2 bars
A -----------------|-----------------|-----------------|-----------------|
   1 + 2 + 3 + 4 + | 1 + 2 + 3 + 4 + | 1 + 2 + 3 + 4 + | 1 + 2 + 3 + 4 + |
GUITAR 2 [CLEAN]
E -----------------|-----------------|-----------------|-7---------------|
B -----------------|-----------------|-----------------|-0---------------|
G -8---------------|---------8-------|-----------------|-6---------------|
D -11--------------|---------9-------|-11--------------|-----------------|
A -----------------|-----------------|-12--------------|-----------------|
E -----------------|-----------------|-----------------|-----------------|
A -----------------|-----------------|-----------------|-----------------|
   1 + 2 + 3 + 4 + | 1 + 2 + 3 + 4 + | 1 + 2 + 3 + 4 + | 1 + 2 + 3 + 4 + |

GUITAR 1 [CLEAN]                      [DISTORTED - 6/8]
E -----------------|-4-------7--9--7-|-------------0-0-0-0-0-0-|-------------------------|
B ----4--5----5----|----5------------|-------------5/4-4-4-4-4-|-------------------------|
G -6-------6-----6-|-------6---------|-------------------------|-------------------------|
D -----------------|-----------------|-------------------------|-------------------------|
A -----------------|-----------------|-0---0-0-----------------|-0---0-0---0-7-----------|
E -----------------|-----------------|-0---0-0-----------------|-0---0-0---0-7-----------| 
A -----------------|-----------------|-0---0-0-----------------|-0---0-0---0-7-----------|
   1 + 2 + 3 + 4 + | 1 + 2 + 3 + 4 + | 1 + 2 + 3 + 4 + 5 + 6 + | 1 + 2 + 3 + 4 + 5 + 6 + |
GUITAR 2 [CLEAN]                      [DISTORTED - 6/8]
E -----------------|-----------------|-0---0-0-----------------|-0---0-0---0-------------|
B -----------------|-----------------|-0---0-0-----------------|-0---0-0---0-0-----------|
G -8---------------|---------8-------|-2---2-2-----------------|-2---2-2---2-4-----------|
D -11--------------|---------9-------|-2---2-2-----------------|-2---2-2---2-2-----------|
A -----------------|-----------------|-0---0-0-----------------|-0---0-0---0-2-----------|
E -----------------|-----------------|-------------------------|-------------------------|
A -----------------|-----------------|-------------------------|-------------------------|
   1 + 2 + 3 + 4 + | 1 + 2 + 3 + 4 + | 1 + 2 + 3 + 4 + 5 + 6 + | 1 + 2 + 3 + 4 + 5 + 6 + |

GUITAR 1 [DISTORTED - Play Twice]
E -------------------------|-------------------------|-------------------------|-------------------------|
B -------------------------|-------------------------|-------------------------|-------------------------|
G -------------------------|-------------------------|-------------------------|-------------------------|
D -------------------------|-------------------------|-------------------------|-------------------------| 12's & 10's
A -7-4-4-4---4-5-4-4-4---4-|-7-4-4-4---4-5-4-4-4---4-|-129-9-9---9-109-9-9---9-|-129-9-9---9-129-9-9---9-|
E -------------------------|-------------------------|-------------------------|-------------------------|
A -------------------------|-------------------------|-------------------------|-------------------------|
   1 + 2 + 3 + 4 + 5 + 6 + | 1 + 2 + 3 + 4 + 5 + 6 + | 1 + 2 + 3 + 4 + 5 + 6 + | 1 + 2 + 3 + 4 + 5 + 6 + |

GUITAR 2 [DISTORTED - Play Twice]
E -------------------------|-------------------------|-------------------------|-------------------------|
B -------------------------|-------------------------|-------------------------|-------------------------|
G -------------------------|-------------------------|-------------------------|-------------------------|
D -------------------------|-------------------------|-------------------------|-------------------------| 12's & 10's
A -7-4---4---4-5-4---4---4-|-7-4---4---4-5-4---4---4-|-129---9---9-109---9---9-|-129---9---9-129---9---9-|
E -7-4---4---4-5-4---4---4-|-7-4---4---4-5-4---4---4-|-129---9---9-109---9---9-|-129---9---9-129---9---9-|
A -7-4---4---4-5-4---4---4-|-7-4---4---4-5-4---4---4-|-129---9---9-109---9---9-|-129---9---9-129---9---9-|
   1 + 2 + 3 + 4 + 5 + 6 + | 1 + 2 + 3 + 4 + 5 + 6 + | 1 + 2 + 3 + 4 + 5 + 6 + | 1 + 2 + 3 + 4 + 5 + 6 + |

!!!BACK TO 4/4!!!

CHORUS
GUITAR 1 [DISTORTED] 
E -----------------|---------------------------------|-----------------|-----------------|
B -----------------|---------------------------------|-----------------|-----------------|
G -----------------|-14141414141414131313131313131313|-----------------|-----------------|
D -----------------|-x-x-x-x-x-x-x-x-x-x-x-x-x-x-x-x-|-----------------|-----------------|
A -44-44-44-44-----|-12121212121212111111111111111111|-0---0--0-00-0-0-|-2---2--2-22-2-2-| 
E -44-44-44-44-----|---------------------------------|-0---0--0-00-0-0-|-2---2--2-22-2-2-|
A -44-44-44-44-----|---------------------------------|-0---0--0-00-0-0-|-2---2--2-22-2-2-|
   1 + 2 + 3 + 4 + | 1 e + a 2 e + a 3 e + a 4 e + a | 1 + 2 + 3 + 4 + | 1 + 2 + 3 + 4 + |
GUITAR 2 [DISTORTED]
E -----------------|-----------------|-----------------|-----------------|
B -----------------|-----------------|-----------------|-----------------|
G -----------------|-----------------|-----------------|-----------------|
D -----------------|-4---4--4-44-4-4-|-----------------|-----------------|
A -------------7/--|-4---4--4-44-4-4-|-0---0--0-00-0-0-|-2---2--2-22-2-2-| 
E -------------7/--|-2---2--2-22-2-2-|-0---0--0-00-0-0-|-2---2--2-22-2-2-|
A -------------7/--|-----------------|-0---0--0-00-0-0-|-2---2--2-22-2-2-|
   1 + 2 + 3 + 4 + | 1 + 2 + 3 + 4 + | 1 + 2 + 3 + 4 + | 1 + 2 + 3 + 4 + |

GUITAR 1 [DISTORTED] 
E -----------------|---------------------------------|-----------------|-----------------|
B -----------------|---------------------------------|-----------------|-----------------|
G -----------------|-14141414141414131313131313131313|-----------------|-----------------|
D -----------------|-x-x-x-x-x-x-x-x-x-x-x-x-x-x-x-x-|-----------------|-----------------|
A -4---4--4-44-7-7-|-12121212121212111111111111111111|-0---0--0-00-0-0-|-2---2--2-22-2-2-| 
E -4---4--4-44-7-7-|---------------------------------|-0---0--0-00-0-0-|-2---2--2-22-2-2-|
A -4---4--4-44-7-7-|---------------------------------|-0---0--0-00-0-0-|-2---2--2-22-2-2-|
   1 + 2 + 3 + 4 + | 1 e + a 2 e + a 3 e + a 4 e + a | 1 + 2 + 3 + 4 + | 1 + 2 + 3 + 4 + |
GUITAR 2 [DISTORTED]
E -----------------|-----------------|-----------------|-----------------|
B -----------------|-----------------|-----------------|-----------------|
G -----------------|-----------------|-----------------|-----------------|
D -----------------|-4---4--4-44-4-4-|-----------------|-----------------|
A -4---4--4-44-7-7-|-4---4--4-44-4-4-|-0---0--0-00-0-0-|-2---2--2-22-2-2-| 
E -4---4--4-44-7-7-|-2---2--2-22-2-2-|-0---0--0-00-0-0-|-2---2--2-22-2-2-|
A -4---4--4-44-7-7-|-----------------|-0---0--0-00-0-0-|-2---2--2-22-2-2-|
   1 + 2 + 3 + 4 + | 1 + 2 + 3 + 4 + | 1 + 2 + 3 + 4 + | 1 + 2 + 3 + 4 + |

OUTRO
GUITAR 1 [DISTORTED - Play Twice] 
                   |------------Repeat-1x------------|
E -----------------|---------------------------------|---------------------------------|
B -----------------|---------------------------------|---------------------------------|
G -6666666666669999|-14141414141414131313131313131313|-111111111111119-9-9-9-9-9-9-9-9-|
D -x-x-x-x-x-x-x-x-|-x-x-x-x-x-x-x-x-x-x-x-x-x-x-x-x-|-x-x-x-x-x-x-x-x-x-x-x-x-x-x-x-x-|
A -4444444444447777|-12121212121212111111111111111111|-9-9-9-9-9-9-9-7-7-7-7-7-7-7-7-7-| 
E -----------------|---------------------------------|---------------------------------|
A -----------------|---------------------------------|---------------------------------|
   1 + 2 + 3 + 4 + | 1 e + a 2 e + a 3 e + a 4 e + a | 1 e + a 2 e + a 3 e + a 4 e + a |
GUITAR 2 [DISTORTED]
E -----------------|-----------------|-----------------|-----------------|
B -----------------|-----------------|-----------------|-----------------|
G -----------------|-----------------|-----------------|-----------------|
D -----------------|-4---4--4-44-4-4-|-----------------|-----------------|
A -4---4--4-44-7-7-|-4---4--4-44-4-4-|-0---0--0-00-0-0-|-2---2--2-22-2-2-| 
E -4---4--4-44-7-7-|-2---2--2-22-2-2-|-0---0--0-00-0-0-|-2---2--2-22-2-2-|
A -4---4--4-44-7-7-|-----------------|-0---0--0-00-0-0-|-2---2--2-22-2-2-|
   1 + 2 + 3 + 4 + | 1 + 2 + 3 + 4 + | 1 + 2 + 3 + 4 + | 1 + 2 + 3 + 4 + |

GUITAR 1 [CLEAN]
E -----------------|-4---------------|-----------------|-----------------|
B ----4--5----5----|----5----4--5--4-|-----------------|-----------------| Hold the chord here
G -6-------6-----6-|-------6---------|-6---------------|-----------------| and arpeggiate it
D -----------------|-----------------|-----------------|-----------------| so the notes ring out.
A -----------------|-----------------|-----------------|-----------------| 
E -----------------|-----------------|-----------------|-----------------| 
A -----------------|-----------------|-----------------|-----------------|
   1 + 2 + 3 + 4 + | 1 + 2 + 3 + 4 + | 1 + 2 + 3 + 4 + | 1 + 2 + 3 + 4 + |
GUITAR 2 [DISTORTED - Fade Out]
E -----------------|-----------------|-----------------|-----------------|
B -----------------|-----------------|-----------------|-----------------|
G -----------------|-----------------|-----------------|-----------------|
D -----------------|-----------------|-----------------|-----------------|
A -4---------------|-----------------|-----------------|-----------------|
E -4---------------|-----------------|-----------------|-----------------|
A -4---------------|-----------------|-----------------|-----------------|

END

NOTE: What a mission this was, managed to write a midi of this track and then tab guitar from it, bass & drums to come.
      I think I got everything pretty much right, i'm not sure which part is played by which guitarist, I'm guessing 
      Marcus is Guitar 1 & Brandon Guitar 2. Any comments/corrections would be much appreciated. Oh and you can check 
      out my midi of this track here: www.zero1.com.au/Jez/Yours_Truly.mid
      ENJOY!
Related for Yours Truly tab