Song name
# A B C D E F G H I J K L M N O P Q R S T U V W X Y Z

Blink 182 - Feels So Good tab

От: for www.ultimate-guitar.com 
Кому: 
Тема: New Tabs
Дата: 6 июля 2000 г. 15:25

blink 182,feels so good.
 Tabbed by noodles,i_noodles_i@hotmail.com.
  
artist : blink 182

song : feels so good

transcribed by : pete Mackenzie (noodles)



this is a song blink only play live. i've been to at least 15 sites to get this tab but no one has it so i thought i'd tab it out.it's pretty easy.this is how they played it at the BIG day out.





This is played with a quick strum when you play the chord

intro : 

e-----------------------------------------------------

B------1----------------------------------------------

G------0----------------------------------------------

D------2----------- x  3------------------------------

A----3------0--------------3----0--2------------------

E--------3---------------------3----------------------



riff 1

e-----------------------------------------------------

B-----------------------------------------------------

G-----------------------------------------------------

D------2--------2--------2----------------------------

A----3-----0--3-----0--3------3----0--2---------------

E--------3--------3---------3----3--------------------



through the verse it just repeats riff 1 a couple of times then when they get to the part, " and i know , it feels so good", it plays:



e-----------------------------------------------------

B-----------------------------------------------------

G---5-5-5-5----7-7-7-7--------------------------------

D---5-5-5-5----7-7-7-7--------------------------------

A---3-3-3-3----5-5-5-5--------------------------------

E-----------------------------------------------------



play this twice then end on the C.



 comments,questions very welcome. gimmie69z@hotmail.com

    p.s  amy.r is a dirty slut!!!

 
:: Ultimate Guitar Archive :: 
http://www.ultimate-guitar.com 

Tap to rate this tab
# A B C D E F G H I J K L M N O P Q R S T U V W X Y Z