Song name
# A B C D E F G H I J K L M N O P Q R S T U V W X Y Z

Blink 182 - Phantom Of The Opera tab

Standard E-e tuning
YAY i tabbed this myself, cause im sik of people who cant tab it properly, so here is the real version

hebeshebe@hotmail.com aka jake

lead guitar
E -----------------------------------------------------------|
B -----------------------------------------------------------|
G ---7--757--757---757/12---7--757-757-7575757---------------| do this til verse
D -----------------------------------------------------------|
A -----------------------------------------------------------|
E -----------------------------------------------------------|

2nd Guitar

E ---------------------------------------------------------|
B ---------------------------------------------------------|
G ---------------------------------------------------------|
D ---------------------------------------------------------|
A --5-5-5-5-5-5-5-5-5-5-4-3-2-1-1-1-1-1-1-1-1-1-1----------|
E ---------------------------------------------------------|


E ---------------------------------------------------------|
B ---------------------------------------------------------|
G ---------------------------------------------------------|
D ---------------------------------------------------------|
A --1-1-1-1-1-1-1-1-1-1-2-3-4-5-5-5-5-5-5-5-5-5-5----------|
E ---------------------------------------------------------|


Verse 1


D                  G             D
        In sleep he sang to me
              D      C D
In dreams he came
                  G              C
That voice which calls to me
               D     C D
And speaks my name
           A#          C
And do I dream again
           D           CD
For now I find

Chorus

      D                       A#
The Phantom of the Opera is there
           D
Inside my mind


then play:
(riff 1)
E ---------------------------------------------------------|
B ---------------------------------------------------------|
G ---------------------------------------------------------|
D ---------------------------------------------------------|
A --5-5-5-5-5-5-5-5-5-5-4-3-2-1-1-1-1-1-1-1-1-1-1----------|
E ------------------------------------------------5-4-3-3--|

Verse 2
G                  C             F
     Sing once again with me
             G
Our strange duet
           C             F
My power over you
               G
Grows stronger yet
                D#           F
And though you turn from me
            G
To glance behind

then play:
(riff 2)
E ---------------------------------------------------------|
B ---------------------------------------------------------|
G ---------------------------------------------------------|
D --5-5-5-5-5-5-5-5-5-5-4-3-2-1-1-1-1-1--------------------|
A --------------------------------------5-5-5-5-5----------|
E ---------------------------------------------------------|

Verse 3

 E                    A               D
      Those who have seen your face
               E
Draw back in fear
            A               D
I am the mask you wear
              E
It's me they hear
                C                 D
Your/my spirit and your/my voice
           E
in one combined

Chorus:


      E     s l i d e  t o     C
The Phantom of the Opera is there
           E
Inside my mind

then play:
(riff 3)
E ---------------------------------------------------------|
B ---------------------------------------------------------|
G ---------------------------------------------------------|
D --7-7-7-7-7-7-7-7-7-7-6-5-4-3-3-3-3-3-3-3-3-3-3----------|
A ---------------------------------------------------------|
E ---------------------------------------------------------|

E ---------------------------------------------------------|
B ---------------------------------------------------------|
G ---------------------------------------------------------|
D --3-3-3-3-3-3-3-3-3-3-4-5-6-7-7-7-7-7-7-7-7-7-7----------|
A ---------------------------------------------------------|
E ---------------------------------------------------------|

END


Enjoy for this is the real thing and not a dodgy one that is slapped together in 5 min 
the main chord seems to be D so the whole song is D, u know what i mean

peace out

jake out
Tap to rate this tab
# A B C D E F G H I J K L M N O P Q R S T U V W X Y Z