Song name
# A B C D E F G H I J K L M N O P Q R S T U V W X Y Z

Blink 182 - The Longest Line tab

7. The longest line

The Longest Line Tab by Blink 182, www.Ultimate-Guitar.Com

song:the longest line
band:blink 182
album:fly swatter (1992)
original tabber:dale kracker
remastered tabber: Andrew Speed

i edited this as the original had some problems
considering it was ment to be 100% accurate

intro/verse: (palm muted)
e-----------------------------------|
b-----------------------------------|
g-----------------------------------|
d-555555----------------------------|
a-333333--55555555-7777777777777777-|
e---------33333333-5555555555555555-|
(cont)
e------------------------------------------|
b------------------------------------------|
g------------------------------------------|
d-5555555----------------------------------|
a-3333333-55555555-3333333333333333-77-5---|
e---------33333333-1111111111111111-55-3---|
"i must have fuck with some witch
e---------|  untill she cursed me"
b---------|
g---------|
d---------|
a-3-5-7-8-|
e-1-3-5-6-|
chorus:(palm muted)
e------------------------------------------------|
b------------------------------------------------|
g------------------------------------------------|
d-55555----------------------5555->7777-10101010-|
a-33333-55555-7777-2222-3333-3333->5555--8-8-8-8-|
e-------33333-5555-0000-1111---------------------|
solo:
e----------------------------------------8-5----5-------|
b-----------------------------655---5-88-----88---8-----|
g-------------------------4455---55-----------------5-7-|
d----532-00----02233200---------------------------------|
a--3--------33----------3-------------------------------|
e-------------------------------------------------------|
Tap to rate this tab
 
# A B C D E F G H I J K L M N O P Q R S T U V W X Y Z