Song name
# A B C D E F G H I J K L M N O P Q R S T U V W X Y Z

Blink 182 - Lucky tab

-------------------------------------------------------------------------------
	        Lucky (Britney Spears Cover) - Blink 182
-------------------------------------------------------------------------------
Tabbed by: bloodred16	
Email: happytreefriends_firstblood@hotmail.com

Tuning: Standard (EADGBe)

Intro
Rhy. Fig. 1 (x2)
e|---------------------------------------------------------------------------|
B|---------------------------------------------------------------------------|
G|5--5--5\4------------------------------------------------------------------|
D|5--5--5\4--7--7--7\5-------------------------------------------------------|
A|3--3--3\2--7--7--7\5-------------------------------------------------------|
E|-----------5--5--5\3-------------------------------------------------------|

Verse
e|---------------------------------------------------------------------------|
B|---------------------------------------------------------------------------|
G|5--------5\4---------------5x--5x--5\4---------------5x--5x--5\4-----------|
D|5--------5\4--7x--7x--7\5--5x--5x--5\4--7x--7x--7\5--5x--5x--5\4--7x--7x---|
A|3--------3\2--7x--7x--7\5--3x--3x--3\2--7x--7x--7\5--3x--3x--3\2--7x--7x---|
E|--------------5x--5x--5\3---------------5x--5x--5\3---------------5x--5x---|

e|---------------------------------------------------------------------------|
B|---------------------------------------------------------------------------|
G|-----5x--5x--5\4-----------------------------------------------------------|
D|7\4--5x--5x--5\4--7x--7x--7\5----------------------------------------------|
A|7\4--3x--3x--3\2--7x--7x--7\5----------------------------------------------|
E|5\2---------------5x--5x--5\3----------------------------------------------|

Pre-Chorus
e|---------------------------------------------------------------------------|
B|---------------------------------------------------------------------------|
G|5-5-5-5-5-5-5-5------------------------------------------------------------|
D|5-5-5-5-5-5-5-5--7-7-7-7-7-7-7-7--3-3-3-3-3-3-3-3--5-5-5-5-5-5-5-5---------|
A|3-3-3-3-3-3-3-3--7-7-7-7-7-7-7-7--3-3-3-3-3-3-3-3--5-5-5-5-5-5-5-5---------|
E|-----------------5-5-5-5-5-5-5-5--1-1-1-1-1-1-1-1--3-3-3-3-3-3-3-3---------|

Chorus 
Riff A (x6)               Then this:
e|---------------------------------------------------------------------------|
B|---------------------------------------------------------------------------|
G|------5-----5--------------------------------------------------------------|
D|---5-----5-----5-----5------------3-3-3-3-3-3-3-3--5-5-5-5-5-5-5-5---------|
A|3-----------------3---------------3-3-3-3-3-3-3-3--5-5-5-5-5-5-5-5---------|
E|----------------------------------1-1-1-1-1-1-1-1--3-3-3-3-3-3-3-3---------|

Verse
Pre-Chorus
Chorus

Interlude
Rhy. Fig. 2 (x2) - after the second time P.S.
e|---------------------------------------------------------------------------|
B|---------5-----------------------------------------------------------------|
G|------5-----5--------------5-----------------2-----------------------------|
D|---5-----------5--------7-----7-----------3-----3-----5-5--5-5--5-5--------|
A|3--------------------7-----------7-----3-----------3--5-5--5-5--5-5--------|
E|------------------5-----------------1-----------------3-3--3-3--3-3--------|

Pre-Chorus (x2)
Chorus (x2)

Finish On:
e|---------------------------------------------------------------------------|
B|---------------------------------------------------------------------------|
G|5--------------------------------------------------------------------------|
D|5--------------------------------------------------------------------------|
A|3--------------------------------------------------------------------------|
E|---------------------------------------------------------------------------|

| /  slide up
| \  slide down
|P.S. Pick Scratch
| x  Mute note
===============================================================================
Tap to rate this tab
# A B C D E F G H I J K L M N O P Q R S T U V W X Y Z