Song name
# A B C D E F G H I J K L M N O P Q R S T U V W X Y Z

Blink 182 - Go tab

Artist: Blink 182
Song: Go
Album: (self titled) Blink 182
       Geffen Records
Email: rexxdoggy@yahoo.com

Tuning: Standard EADGBE

Intro x2
|-----------------------------------------------------|
|-----------------------------------------------------|
|-----------------------------------------------------|
|--2-2-2-2-2-2-2-2------------------------------------| 
|--3-3-3-3-3-3-3-3--3-3-3-3-3-3-3-3-------------------|
|--0-0-0-0-0-0-0-0--1-1-1-1-1-1-1-1-------------------|

Verse x2
|-----------------------------------------------------|
|-----------------------------------------------------|
|-----------------------------------------------------|
|--------------------0-0------------------------------|  
|--3333333333333-2-2----------------------------------|
|------------------------111111111111111111-----------|

Chorus x2
|-----------------------------------------------------|
|-----------------------------------------------------|
|-----------------------------------------------------|
|-----------------------------------------------------|
|--7-7-7-7-3-3-3-3-7-7-7-7-3-3-3-3--------------------|
|--5-5-5-5-1-1-1-1-5-5-5-5-1-1-1-1--------------------|

(or you can play the chorus like this.
 personally, i like the one above)
|-----------------------------------------------------|
|-----------------------------------------------------|
|-----------------------------------------------------|
|--2-2-2-2---------2-2-2-2----------------------------|
|--0-0-0-0-3-3-3-3-0-0-0-0-3-3-3-3--------------------|
|----------1-1-1-1---------1-1-1-1--------------------|

Pre Verse x2
|-----------------------------------------------------|
|-----------------------------------------------------|
|-----------------------------------------------------|
|--2-2-2-2-2-2-2-2------------------------------------| 
|--3-3-3-3-3-3-3-3--3-3-3-3-3-3-3-3-------------------|
|--0-0-0-0-0-0-0-0--1-1-1-1-1-1-1-1-------------------|

Verse x2
|-----------------------------------------------------|
|-----------------------------------------------------|
|-----------------------------------------------------|
|--------------------0-0------------------------------|  
|--3333333333333-2-2----------------------------------|
|------------------------111111111111111111-----------|

Chorus x2
|-----------------------------------------------------|
|-----------------------------------------------------|
|-----------------------------------------------------|
|-----------------------------------------------------|
|--7-7-7-7-3-3-3-3-7-7-7-7-3-3-3-3--------------------|
|--5-5-5-5-1-1-1-1-5-5-5-5-1-1-1-1--------------------|

Bridge
|-----------------------------------------------------|
|-----------------------------------------------------|
|-----------------------------------------------------|
|-----------------------------------------------------|
|--3--5--7--3-3-2--3--5--3~--3--5--3--3--2--3--3------|
|-----------------------------------------------------|
                                               ^Heres
                                            where the
                                            feedback 
                                            comes in
During Bridge
|-----------------------------------------------------|
|-----------------------------------------------------|
|-----------------------------------------------------|
|--555555555555554422---------------------------------|
|--3333333333333322003333333333333333333--------------|
|--------------------1111111111111111111--------------|
PM -------------------------------------

Break
|-----------------------------------------------------|
|-----------------------------------------------------|
|-----------------------------------------------------|
|-----------------------------------------------------|
|---7-------------------------------------------------|
|---5-------------------------------------------------|

Chorus x2
|-----------------------------------------------------|
|-----------------------------------------------------|
|-----------------------------------------------------|
|-----------------------------------------------------|
|--7-7-7-7-3-3-3-3-7-7-7-7-3-3-3-3--------------------|
|--5-5-5-5-1-1-1-1-5-5-5-5-1-1-1-1--------------------|

Outro x3
|--------------------------------------------------------|
|--------------------------------------------------------|
|-------------------5-5-5-5-7-7-7-7-9-9-9-9-10-10-10-10--|
|--2-2-2-2-2-2-2-2--x-x-x-x-x-x-x-x-x-x-x-x--x--x--x--x--|
|--3-3-3-3-3-3-3-3--3-3-3-3-5-5-5-5-7-7-7-7--8--8--8--8--|
|--0-0-0-0-0-0-0-0---------------------------------------|

Ending
|-----------------------------------------------------|
|-----------------------------------------------------|
|-----------------------------------------------------|
|--2-2-2-2-2-2-2-2--3---------------------------------|
|--3-3-3-3-3-3-3-3--3---------------------------------|
|--0-0-0-0-0-0-0-0--1---------------------------------|
Tap to rate this tab
# A B C D E F G H I J K L M N O P Q R S T U V W X Y Z