Guitaretab - guitar tabs
Song name
# A B C D E F G H I J K L M N O P Q R S T U V W X Y Z

Blink 182 - Dammit Acoustic tab

So this is an acoustic version of 'Dammit' by Blink-182 that I came up with and I hope 
enjoy it.
It may seem confusing and different than the original, but just trust me and play it, 
see that it sounds really cool.

INTRO (STRUMMED)

E|-------------------------------------------|
B|-------------------------------------------|
G|--5-5-7-7-9-----7-7-9-----7-7-9------------|
D|--5-5-7-7-9-5-5-7-7-9-7-7-5-7-9-3-3-9-9-7--|
A|--3-3-5-5-7-5-5-5-5-7-5-5-5-5-7-3-3-9-7-7--|
E|------------3-3-------5-5-------1-1-7-7-5--|

VERSE (PICKED)

E|----------------------------------------------------|
B|----------------------------------------------------|
G|------5---5-----------------------------------------|
D|----5--------------5---5--------7---7--------3---3--|
A|--3-----3--------5------------7------------3--------|
E|---------------3-----3------5-----5------1-----1----|

CHORUS (STRUMMED)
[ Tab from: http://www.guitaretab.com/b/blink-182/174603.html ]
E|-------------------------------------------------------|
B|-------------------------------------------------------|
G|--5-5-5-5-5-5------------------------------------------|
D|--5-5-5-5-5-5--5-5-5-5-5-5--7-7-7-7-7-7--3-3-3-3-3-----|
A|--3-3-3-3-3-3--5-5-5-5-5-5--7-7-7-7-7-7--3-3-3-3-3-----|
E|---------------3-3-3-3-3-3--5-5-5-5-5-5--1-1-1-1-1-----|

INTERLUDE (PICKED)

E|-------------------------------------------------|
B|-------------------------------------------------|
G|-------------------------------------------------|
D|--2------0--2------2---------0-2---0-2----2------|
A|----3---------3------3-----------3-----3----3----|
E|------3----------------3----------------------3--|


ORDER

(NOTE: You might just want to play the verse 2x instead of 4x, whichever you prefer.)

Intro 4x
Verse 4x
Intro 2x
Verse 4x
Chorus 2x
Intro 2x
Verse 4x
Chorus 2x
Bridge 1x
Intro 4x
End on C5.
Related for Dammit Acoustic tab
Dammit Acoustic chords by Blink 182