Song name
# A B C D E F G H I J K L M N O P Q R S T U V W X Y Z

Blink 182 - Wasting Time tab

This is the first time I've posted a tab online. I hope it comes out alright.
Any corrections to be made, please let me know. Thanks.

INTRO

e|-----------------------------------|
b|-----------------------------------|
g|-----------------------------------|
d|---9-7-6-----6-7-6------6-4--4-4-2-|
a|--7-----7-7-7-----7-444-----2-2----|
E|-0---------------------------------|

e|-----------------------------------|
b|-----------------------------------|
g|-----------------------------------|
d|---9-7-6-----6-7-6------6-4--4-4-2-|
a|--7-----7-7-7-----7-444-----2-2----|
E|-0---------------------------------|

e|----------------------------------|
b|----------------------------------|
g|------------------6-66666-4-44444-|
d|-7-7-777-2-22-222-6-66666-4-44444-|
a|-7-7-777-2-22-222-4-44444-2-22222-|
E|-5-5-555-0-00-000-----------------|
   pm

e|----------------------------------|
b|----------------------------------|
g|------------------6-66666-4-44444-|
d|-7-7-777-2-22-222-6-66666-4-44444-|
a|-7-7-777-2-22-222-4-44444-2-22222-|
E|-5-5-555-0-00-000-----------------|
   pm

e|----------------------------------|
b|----------------------------------|
g|------------------6-66666-4-44444-|
d|-7-7-777-2-22-222-6-66666-4-44444-|
a|-7-7-777-2-22-222-4-44444-2-22222-|
E|-5-5-555-0-00-000-----------------|
   pm

e|---------------------------------------------------------------------|
b|---------------------------------------------------------------------|
g|------------------6-666-666-666-66-4-444-444-444-44------------------|
d|-7-7-777-2-22-222-6-666-666-666-66-4-444-444-444-44-7-777-777-777-77-|
a|-7-7-777-2-22-222-4-444-444-444-44-2-222-222-222-22-7-777-777-777-77-|
E|-5-5-555-0-00-000-----------------------------------5-555-555-555-55-|
   pm

e|--------------------|
b|-10-----10----------|
g|---9---9--9---9-----|
d|-----7------7-------|
a|--------------------|
E|--------------------|

e|-----------------------------------|
b|-----------------------------------|
g|-----------------------------------|
d|---9-7-6-----6-7-6------6-4--4-4-2-|
a|--7-----7-7-7-----7-444-----2-2----|
E|-0---------------------------------|

e|-----------------------------------|
b|-----------------------------------|
g|-----------------------------------|
d|---9-7-6-----6-7-6------6-4--4-4-2-|
a|--7-----7-7-7-----7-444-----2-2----|
E|-0---------------------------------|

VERSE ONE

I'm wasting time thinking about a girl  (1)
And stealing her away from her world    (2)
She and I would run away                (3)
I'd think of all the things I'd say     (4)
We'd talk about important things        (5)
And I'd picture it in my dreams         (6)
She'd teach me about modern art and     (7)
I'd show her it's okay to fart and      (8)

  (1)                (2)
e|----------------------------------------|
b|----------------------------------------|
g|---------------------6-66-666-4-44-44-4-|
d|-7-77-77-7-2-22-22-2-6-66-666-4-44-44-4-|
a|-7-77-77-7-2-22-22-2-4-44-444-2-22-22-2-|
E|-5-55-55-5-0-00-00-0--------------------|

  (3)                (4)
e|----------------------------------------|
b|----------------------------------------|
g|---------------------6-66-666-4-44-44-4-|
d|-7-77-77-7-2-22-22-2-6-66-666-4-44-44-4-|
a|-7-77-77-7-2-22-22-2-4-44-444-2-22-22-2-|
E|-5-55-55-5-0-00-00-0--------------------|

  (5)                (6)
e|----------------------------------------|
b|----------------------------------------|
g|---------------------6-66-666-4-44-44-4-|
d|-7-77-77-7-2-22-22-2-6-66-666-4-44-44-4-|
a|-7-77-77-7-2-22-22-2-4-44-444-2-22-22-2-|
E|-5-55-55-5-0-00-00-0--------------------|

  (7)                (8)
e|----------------------------------------|
b|----------------------------------------|
g|---------------------6-66-666-4-44-44-4-|
d|-7-77-77-7-2-22-22-2-6-66-666-4-44-44-4-|
a|-7-77-77-7-2-22-22-2-4-44-444-2-22-22-2-|
E|-5-55-55-5-0-00-00-0--------------------|

CHORUS

Maybe I'd impress her by being in a band and                       (1)
Maybe if I act real tough she'd let me hold her hand and           (2)
Maybe I'll win her heart by writing this song about her            (3)
Sometimes I sit at home and wonder if she's sitting at home        (4)
thinking of me.I wonder if I'm sitting at home thinking about her
or am I just wasting my time

  (1)
e|----------------------------------|
b|----------------------------------|
g|------------------6-66666-4-44444-|
d|-7-7-777-2-22-222-6-66666-4-44444-|
a|-7-7-777-2-22-222-4-44444-2-22222-|
E|-5-5-555-0-00-000-----------------|
   pm

  (2)
e|----------------------------------|
b|----------------------------------|
g|------------------6-66666-4-44444-|
d|-7-7-777-2-22-222-6-66666-4-44444-|
a|-7-7-777-2-22-222-4-44444-2-22222-|
E|-5-5-555-0-00-000-----------------|
   pm

  (3)
e|----------------------------------|
b|----------------------------------|
g|------------------6-66666-4-44444-|
d|-7-7-777-2-22-222-6-66666-4-44444-|
a|-7-7-777-2-22-222-4-44444-2-22222-|
E|-5-5-555-0-00-000-----------------|
   pm

  (4)
e|---------------------------------------------------------------------|
b|---------------------------------------------------------------------|
g|------------------6-666-666-666-66-4-444-444-444-44------------------|
d|-7-7-777-2-22-222-6-666-666-666-66-4-444-444-444-44-7-777-777-777-77-|
a|-7-7-777-2-22-222-4-444-444-444-44-2-222-222-222-22-7-777-777-777-77-|
E|-5-5-555-0-00-000-----------------------------------5-555-555-555-55-|
   pm

e|--------------------|
b|-10-----10----------|
g|---9---9--9---9-----|
d|-----7------7-------|
a|--------------------|
E|--------------------|

e|-----------------------------------|
b|-----------------------------------|
g|-----------------------------------|
d|---9-7-6-----6-7-6------6-4--4-4-2-|
a|--7-----7-7-7-----7-444-----2-2----|
E|-0---------------------------------|

e|-----------------------------------|
b|-----------------------------------|
g|-----------------------------------|
d|---9-7-6-----6-7-6------6-4--4-4-2-|
a|--7-----7-7-7-----7-444-----2-2----|
E|-0---------------------------------|

VERSE TWO

Remembering when she laughed at Kinko's            (1)
When I made fun of that guy                        (2)
Remembering the look she gave me                   (3)
When I told her that I used to fry                 (4)
I really wanna ask her out                         (5)
But my ego could never take it                     (6)
And even if I got the balls                        (7)
You know that the cougar could never make it       (8)
Ah-aha-ah                                          (9)
And in my town you can't drive naked               (10)

   (1)             (2)
e|--------------------------------------|
b|--------------------------------------|
g|-------------------6-666666-4-444444--|
d|-7-777777-2-222222-6-666666-4-444444--|
a|-7-777777-2-222222-4-444444-2-222222--|
E|-5-555555-0-000000--------------------|
     pm---|   pm---|   pm---|   pm------|

   (3)             (4)
e|--------------------------------------|
b|--------------------------------------|
g|-------------------6-666666-4-444444--|
d|-7-777777-2-222222-6-666666-4-444444--|
a|-7-777777-2-222222-4-444444-2-222222--|
E|-5-555555-0-000000--------------------|
     pm---|   pm---|   pm---|   pm------|

   (5)             (6)
e|-------------------------------------|
b|-------------------------------------|
g|-------------------6-666666-4-444444-|
d|-7-777777-2-222222-6-666666-4-444444-|
a|-7-777777-2-222222-4-444444-2-222222-|
E|-5-555555-0-000000-------------------|

   (7)             (8)
e|-------------------------------------|
b|-------------------------------------|
g|-------------------6-666666-4-444444-|
d|-7-777777-2-222222-6-666666-4-444444-|
a|-7-777777-2-222222-4-444444-2-222222-|
E|-5-555555-0-000000-------------------|

   (9)             (10)
e|--------------------------------------|
b|--------------------------------------|
g|-------------------6-6-6-666-4-444-44-|
d|-7-7-777-2-2-2-222-6-6-6-666-4-444-44-|
a|-7-7-777-2-2-2-222-4-4-4-444-2-222-22-|
E|-5-5-555-0-0-0-000--------------------|
   pm

e|--------------------------------------|
b|--------------------------------------|
g|-------------------6-6-6-666-4-444-44-|
d|-7-7-777-2-2-2-222-6-6-6-666-4-444-44-|
a|-7-7-777-2-2-2-222-4-4-4-444-2-222-22-|
E|-5-5-555-0-0-0-000--------------------|
   pm

CHORUS

And maybe I'd impress her by being in a band and                   (1)
Maybe if I act real tough she'd let me hold her hand and           (2)
Maybe I'll win her heart by writing this song about her            (3)
Sometimes I sit at home and wonder if she's sitting at home        (4)
thinking of me.I wonder if I'm sitting at home thinking about her
or am I just wasting my time

  (1)
e|----------------------------------|
b|----------------------------------|
g|------------------6-66666-4-44444-|
d|-7-7-777-2-22-222-6-66666-4-44444-|
a|-7-7-777-2-22-222-4-44444-2-22222-|
E|-5-5-555-0-00-000-----------------|
   pm

  (2)
e|----------------------------------|
b|----------------------------------|
g|------------------6-66666-4-44444-|
d|-7-7-777-2-22-222-6-66666-4-44444-|
a|-7-7-777-2-22-222-4-44444-2-22222-|
E|-5-5-555-0-00-000-----------------|
   pm

  (3)
e|----------------------------------|
b|----------------------------------|
g|------------------6-66666-4-44444-|
d|-7-7-777-2-22-222-6-66666-4-44444-|
a|-7-7-777-2-22-222-4-44444-2-22222-|
E|-5-5-555-0-00-000-----------------|
   pm

  (4)
e|---------------------------------------------------------------------|
b|---------------------------------------------------------------------|
g|------------------6-666-666-666-66-4-444-444-444-44------------------|
d|-7-7-777-2-22-222-6-666-666-666-66-4-444-444-444-44-7-777-777-777-77-|
a|-7-7-777-2-22-222-4-444-444-444-44-2-222-222-222-22-7-777-777-777-77-|
E|-5-5-555-0-00-000-----------------------------------5-555-555-555-55-|
   pm

e|--------------------|
b|-10--10--10--10-----|
g|---9---9---9---9----|
d|--------------------|
a|--------------------|
E|--------------------|

OUTRO

...time.Am I just wasting my time?
Am I just wasting my time?
Am I just wasting my time?
Wasting my time thinking about a girl

e|-----------------------------------|
b|-----------------------------------|
g|-----------------------------------|
d|---9-7-6-----6-7-6------6-4--4-4-2-|
a|--7-----7-7-7-----7-444-----2-2----|
E|-0---------------------------------|

e|-----------------------------------|
b|-----------------------------------|
g|-----------------------------------|
d|---9-7-6-----6-7-6------6-4--4-4-2-|
a|--7-----7-7-7-----7-444-----2-2----|
E|-0---------------------------------|

e|-----------------------------------|
b|-----------------------------------|
g|-----------------------------------|
d|---9-7-6-----6-7-6------6-4--4-4-2-|
a|--7-----7-7-7-----7-444-----2-2----|
E|-0---------------------------------|

e|-------------------------------------|
b|-------------------------------------|
g|-----------------------------------2-|
d|---9-7-6-----6-7-6------6-4--4-4-2-2-|
a|--7-----7-7-7-----7-444-----2-2----0-|
E|-0-----------------------------------|
Tap to rate this tab
# A B C D E F G H I J K L M N O P Q R S T U V W X Y Z