Song name
# A B C D E F G H I J K L M N O P Q R S T U V W X Y Z

Blink 182 - M And Ms tab

-------------------------------------------------------------------------------
			     "M&M" ---- Blink-182
-------------------------------------------------------------------------------

Tabbed by: [travis]

*This is such an easy and fun song to play and figure out.
*I can't believe there isn't a good tab of this song on here.



Tuning: Standard Tuning = E A D G B E [low to high]


Key: E Major (E F# G# A B C# D# E)


Legend:

... = palm mute
h = hammer on
p = palm mute
b = bend
x = muffled string
/ = slide up
\ = slide down
~ = ring / vibrato
* = harmonic
: = note hit once

====================================
Intro:
Guitar 1:
e|-0-4p0-0-5p0-0-7p0-5-4-5p4-0-2p0-0-4p0-0-5p0-4p0-2-0-0-0-4p0-0-5p0-0-7p0-5-4-5p4-0-|
B|-----------------------------------------------------------------------------------|
G|-----------------------------------------------------------------------------------|
D|-----------------------------------------------------------------------------------|
A|-----------------------------------------------------------------------------------|
E|-----------------------------------------------------------------------------------|

Guitar 1:
e|-2p0-0-4p0-0-2p0-4p0-2-0-0-0-4p0-0-5p0-0-7p0-5-4-5p4-0-2p0-0-4p0-0-5p0-4p0-2-0-0-0-|
B|-----------------------------------------------------------------------------------|
G|-----------------------------------------------------------------------------------|
D|-----------------------------------------------------------------------------------|
A|-----------------------------------------------------------------------------------|
E|-----------------------------------------------------------------------------------|

Guitar 1:
e|-4p0-0-5p0-0-7-5-4-5p4-0-2p0-0-4p0-0-2p0-4p0-2-0-x-|
B|---------------------------------------------------|
G|---------------------------------------------------|
D|---------------------------------------------------|
A|---------------------------------------------------|
E|---------------------------------------------------|

Guitar 2: Play the harmonic at the start of the song only once and let it
          ring. Listen for the rhythm of these chords.
          Play the rhythm over Guitar 1.
e|------|-------------------------------|
B|------|-------------------------------|
G|------|-----4---6-----------4---6-----|
D|------|-2---4---6---7---2---4---6---7-| 
A|-7*~~~|-2---2---4---7---2---2---4---7-|
E|------|-0-----------5---0-----------5-|

==========================================================
Guitar 1:
e|-----------------------------------------------------------------|
B|-----------------------------------------------------------------|
G|---9---9---9---9---9---9---9---9---9---9---9---9---9---9---9---9-|
D|---------------------------------6---6---6---6---7---7---7---7---| x2
A|-7---7---7---7---9---9---9---9-----------------------------------|
E|-----------------------------------------------------------------|
   .   .   .   .   .   .   .   .   .   .   .   .   .   .   .   .

==========================================================
Guitar 1:
e|----------------------------------------------------------------|
B|----------------------------------------------------------------|
G|-9--9----9-----9--9--9----9-----9--9--9----9-----/11~~-9-11-9-8-|
D|-9-----9-----9----9-----9----9-----9-----9----9----x~~-x--x-x-x-| x2
A|-7----------------7----------------7--------------/9~~-7--9-7-6-|
E|----------------------------------------------------------------|

==========================================================
Chorus:
Guitar 1: Listen for rhythm of chords. The chords with the
          : over them means you only hit that note/chord once.
e|-----------------:-------------------:---------------:--:-|
B|----------------------------------------------------------|
G|-------------4-------------------4-------------------4--x-|
D|-4---7---2---4-------4---7---2---4-------4---7---2---4--x-|
A|-4---7---2---2---0---4---7---2---2---0---4---7---2---2--x-|
E|-2---5---0-----------2---5---0-----------2---5---0--------|

===========================================================
Guitar 1:
e|-0-4p0-0-5p0-0-7p0-5-4-5p4-0-2p0-0-4p0-0-5p0-4p0-2-0-0-0-4p0-0-5p0-0-7p0-5-4-5p4-0-|
B|-----------------------------------------------------------------------------------|
G|-----------------------------------------------------------------------------------|
D|-----------------------------------------------------------------------------------|
A|-----------------------------------------------------------------------------------|
E|-----------------------------------------------------------------------------------|

Guitar 1:
e|-2p0-0-4p0-0-2p0-4p0-2-0-0-0-4p0-0-5p0-0-7p0-5-4-5p4-0-2p0-0-4p0-0-5p0-4p0-2-0-0-0-|
B|-----------------------------------------------------------------------------------|
G|-----------------------------------------------------------------------------------|
D|-----------------------------------------------------------------------------------|
A|-----------------------------------------------------------------------------------|
E|-----------------------------------------------------------------------------------|

Guitar 1:
e|-4p0-0-5p0-0-7-5-4-5p4-0-2p0-0-4p0-0-2p0-4p0-2-0-x-|
B|---------------------------------------------------|
G|---------------------------------------------------|
D|---------------------------------------------------|
A|---------------------------------------------------|
E|---------------------------------------------------|

Guitar 2: Listen for rhythm. Play over Guitar 1.
e|-------------------------------|
B|-------------------------------|
G|-----4---6-----------4---6-----|
D|-2---4---6---7---2---4---6---7-| 
A|-2---2---4---7---2---2---4---7-|
E|-0-----------5---0-----------5-|


============================================================
Guitar 1:
e|-----------------------------------------------------------------|
B|-----------------------------------------------------------------|
G|---9---9---9---9---9---9---9---9---9---9---9---9---9---9---9---9-|
D|---------------------------------6---6---6---6---7---7---7---7---| x2
A|-7---7---7---7---9---9---9---9-----------------------------------|
E|-----------------------------------------------------------------|
   .   .   .   .   .   .   .   .   .   .   .   .   .   .   .   .

==========================================================
Guitar 1:
e|----------------------------------------------------------------|
B|----------------------------------------------------------------|
G|-9--9----9-----9--9--9----9-----9--9--9----9-----/11~~-9-11-9-8-|
D|-9-----9-----9----9-----9----9-----9-----9----9----x~~-x--x-x-x-| x2
A|-7----------------7----------------7--------------/9~~-7--9-7-6-|
E|----------------------------------------------------------------|

==========================================================
Chorus:
Guitar 1:
e|----------------:-----------------:-----------------:-------------:------|
B|-------------------------------------------------------------------------|
G|-------------4-----------------------------------4----------------4------|
D|-4---7---2---4-----4---7---2---4-----4---7---2---4-----4---7---2--4------|
A|-4---7---2---2--0--4---7---2---4--0--4---7---2---2--0--4---7---2--2--2-0-|
E|-2---5---0---------2---5---0---2-----2---5---0---------2---5---0---------|
                                                                       ...

==========================================================
Interlude:
Guitar 1:
e|----------------------------------------------------------|
B|----------------------------------------------------------|
G|-9~~~---\4~~~---6~~~-----------------4~~~---6~~~---2~~~---|
D|-9~~~---\4~~~---6~~~---7~~~---2~~~---4~~~---6~~~---2~~~---|
A|-7~~~---\2~~~---4~~~---7~~~---2~~~---2~~~---4~~~---0~~~---|
E|-----------------------5~~~---0~~~------------------------|

==========================================================
Break: 
Guitar 1: Strum this a lot. Listen for rhythm.
e|----|
B|----|
G|-9--|
D|-x--|
A|-7--|
E|----|

===========================================================
Outro:
Guitar 1: Play both bars (a), 3 times.
e|-0-4p0-0-5p0-0-7p0-5-4-5p4-0-2p0-0-4p0-0-5p0-4p0-2-0-0-0-4p0-0-5p0-0-7p0-5-4-5p4-0-|
B|-----------------------------------------------------------------------------------|
G|-----------------------------------------------------------------------------------|
D|-----------------------------------------------------------------------------------| (a)
A|-----------------------------------------------------------------------------------|
E|-----------------------------------------------------------------------------------|

Guitar 1:
e|-2p0-0-4p0-0-2p0-4p0-2-0-0-0-|
B|-----------------------------|
G|-----------------------------|
D|-----------------------------| (a)
A|-----------------------------|
E|-----------------------------|



--------
Guitar 1: Play both bars (b), once.
e|-0-4p0-0-5p0-0-7p0-5-4-5p4-0-2p0-0-4p0-0-5p0-4p0-2-0-0-0-4p0-0-5p0-0-7p0-5-4-5p4-0-|
B|-----------------------------------------------------------------------------------|
G|-----------------------------------------------------------------------------------|
D|-----------------------------------------------------------------------------------| (b)
A|-----------------------------------------------------------------------------------|
E|-----------------------------------------------------------------------------------|


Guitar 1:
e|-2p0-0-4p0-0-2p0-4p0-2-0-x-|
B|---------------------------|
G|---------------------------|
D|---------------------------| (b)
A|---------------------------|
E|---------------------------|


Guitar 2: Listen for rhythm. Play over Guitar 1.
e|-------------------------------|
B|-------------------------------|
G|-----4---6-----------4---6-----|
D|-2---4---6---7---2---4---6---7-| x2
A|-2---2---4---7---2---2---4---7-|
E|-0-----------5---0-----------5-|


==============================================================
End on this chord:
Guitars 1 and 2:
e|----------|
B|----------|
G|----------|
D|-2~~~~~~~~|
A|-2~~~~~~~~|
E|-0~~~~~~~~|


Please Rate and Comment.
[travis]
Tap to rate this tab
 
# A B C D E F G H I J K L M N O P Q R S T U V W X Y Z