Song name
# A B C D E F G H I J K L M N O P Q R S T U V W X Y Z

Blink 182 - What Went Wrong Acoustic tab

Hey whats up. I made this tab cause I saw that no one really had a good one up yet. This 
almost 100% correct.
The strum pattern is pretty constant through out the song. However in the verses a few 
may be left out.
I divided each section with lines and did everything I could to make it easily readable.

Well have fun and if there are any problems e-mail me. -samsmartin6988@aol.com


Intro (Guitar 1):
E|-----------|-----------|
B|---0-------|---0-------|
G|-----2-----|-----2-----| x3(Repeat until the first verse)
D|-2---------|-2---------|
A|-----------|-----------|
E|-----------|-----------|

Intro (Guitar 2): [0:04]
E|------------------|-------------------|
B|------------------|-------------------|
G|------------------|--------7-77777-77-|x2
D|-7-77777-77777-77-|-4-4444-7-77777-77-|
A|-7-77777-77777-77-|-4-4444-5-55555-55-|
E|-5-55555-55555-55-|-2-2222------------|
_________________________________________________________________________________

Verse (Guitar 2): [0:12]
E|------------------|------------------|------------------|------------------|
B|------------------|------------------|------------------|------------------|
G|------------------|------------------|-9-99999-99999-99-|-7-77777-77777-77-| x2
D|-7-77777-77777-77-|-4-44444-44444-44-|-9-99999-99999-99-|-7-77777-77777-77-|
A|-7-77777-77777-77-|-4-44444-44444-44-|-7-77777-77777-77-|-5-55555-55555-55-|
E|-5-55555-55555-55-|-2-22222-22222-22-|------------------|------------------|
_________________________________________________________________________________

Break (Guitar 1): [0:29]
E|-----------|-----------|
B|---0-------|---0-------|
G|-----2-----|-----2-----| x2
D|-2---------|-2---------|
A|-----------|-----------|
E|-----------|-----------|

Break (Guitar 2): [0:29]
E|------------------|-------------------|
B|------------------|-------------------|
G|------------------|--------7-77777-77-|x2
D|-7-77777-77777-77-|-4-4444-7-77777-77-|
A|-7-77777-77777-77-|-4-4444-5-55555-55-|
E|-5-55555-55555-55-|-2-2222------------|
_________________________________________________________________________________

Verse 2 (Guitar 2): 0:38
E|------------------|------------------|------------------|------------------|
B|------------------|------------------|------------------|------------------|
G|------------------|------------------|-9-99999-99999-99-|-7-77777-77777-77-| x2
D|-7-77777-77777-77-|-4-44444-44444-44-|-9-99999-99999-99-|-7-77777-77777-77-|
A|-7-77777-77777-77-|-4-44444-44444-44-|-7-77777-77777-77-|-5-55555-55555-55-|
E|-5-55555-55555-55-|-2-22222-22222-22-|------------------|------------------|
_________________________________________________________________________________

Chorus (Guitar 2): [0:55]
E|------------------|------------------|------------------|------------------|
B|------------------|------------------|------------------|------------------|
G|------------------|------------------|------------------|-7-7-7-77-77-7777-| x 2
D|-7-7-7-77-77-7777-|-6-6-6-66-66-6666-|-4-4-4-44-44-4444-|-7-7-7-77-77-7777-|
A|-7-7-7-77-77-7777-|-7-7-7-77-77-7777-|-4-4-4-44-44-4444-|-5-5-5-55-55-5555-|
E|-5-5-5-55-55-5555-|-4-4-4-44-44-4444-|-2-2-2-22-22-2222-|------------------|
_________________________________________________________________________________

Break 2 (Guitar 1): [1:12]
E|-----------|-----------|
B|---0-------|---0-------|
G|-----2-----|-----2-----| x2
D|-2---------|-2---------|
A|-----------|-----------|
E|-----------|-----------|

Break 2 (Guitar 2): [1:12]
E|------------------|--------------------|
B|------------------|--------------------|
G|------------------|--------7-77777-777-|x2
D|-7-77777-77777-77-|-4-4444-7-77777-777-|
A|-7-77777-77777-77-|-4-4444-5-55555-555-|
E|-5-55555-55555-55-|-2-2222-------------|
_________________________________________________________________________________

Verse 3 (Guitar 2): [1:20]
E|------------------|------------------|------------------|------------------|
B|------------------|------------------|------------------|------------------|
G|------------------|------------------|-9-99999-99999-99-|-7-77777-77777-77-| x2
D|-7-77777-77777-77-|-4-44444-44444-44-|-9-99999-99999-99-|-7-77777-77777-77-|
A|-7-77777-77777-77-|-4-44444-44444-44-|-7-77777-77777-77-|-5-55555-55555-55-|
E|-5-55555-55555-55-|-2-22222-22222-22-|------------------|------------------|
_________________________________________________________________________________

Chorus 2: [1:37]
E|------------------|------------------|------------------|------------------|
B|------------------|------------------|------------------|------------------|
G|------------------|------------------|------------------|-7-7-7-77-77-7777-| x 2
D|-7-7-7-77-77-7777-|-6-6-6-66-66-6666-|-4-4-4-44-44-4444-|-7-7-7-77-77-7777-|
A|-7-7-7-77-77-7777-|-7-7-7-77-77-7777-|-4-4-4-44-44-4444-|-5-5-5-55-55-5555-|
E|-5-5-5-55-55-5555-|-4-4-4-44-44-4444-|-2-2-2-22-22-2222-|------------------|
_________________________________________________________________________________

Solo (Guitar 1): [1:54]
E|-----0-----------|-----0-----------|-----0-----------|-----0-----------|
B|-------------2---|-------------2---|-------------2---|-------------2---|
G|---2---2---2---2-|---2---2---2---2-|---2---2---2---2-|---2---2---2---2-|
D|-----------------|-----------------|-0-------0-------|-0-------0-------|
A|-0-------0-------|-0-------0-------|-----------------|-----------------|
E|-----------------|-----------------|-----------------|-----------------|

Solo Cont. (Guitar 1): [2:03]
E|-----0------------|-----0------------|--------------------------------|
B|--------------2---|--------------2---|-----2-----2-----2-----2-222222-|
G|---2---2----2---2-|---2---2----2---2-|---2-----2-----2-----2---222222-|
D|------------------|------------------|-0-----0-----0-----0-----000000-|
A|-0--------0-------|-2--------2-------|--------------------------------|
E|------------------|------------------|--------------------------------|
_________________________________________________________________________________

Bridge (Guitar 2): [2:11]
E|------------------|------------------|------------------|------------------|
B|------------------|------------------|------------------|------------------|
G|------------------|-7-77777-77777-77-|------------------|------------------|
D|-4-44444-44444-44-|-7-77777-77777-77-|-7-77777-77777-77-|-7-77777-77777-77-| x2
A|-4-44444-44444-44-|-5-55555-55555-55-|-7-77777-77777-77-|-7-77777-77777-77-|
E|-2-22222-22222-22-|------------------|-5-55555-55555-55-|-5-55555-55555-55-|

Bridge Cont. (Guitar 2): [2:28]
E|------------------|------------------|
B|------------------|------------------|
G|-9-99999-99999-99-|-7-77777-77777-77-|
D|-9-99999-99999-99-|-7-77777-77777-77-|
A|-7-77777-77777-77-|-5-55555-55555-55-|
E|-0-00000-00000-00-|------------------|
_________________________________________________________________________________


I haven't really figured the real strum pattern for the outro, so I just put the regular 
pattern that's been used.

I think it might just be straight 16th notes through out the outro. But I dont know 
me a message if you figure it out.

Outro (Guitar 2): [2:32]
E|------------------|--------------------|
B|------------------|--------------------|
G|------------------|--------7-77777-777-|x8
D|-7-77777-77777-77-|-4-4444-7-77777-777-|
A|-7-77777-77777-77-|-4-4444-5-55555-555-|
E|-5-55555-55555-55-|-2-2222-------------|

Outro (Guitar 1): [2:50]
E|-----------|-----------|
B|---0-------|---0-------|
G|-----2-----|-----2-----| x4
D|-2---------|-2---------|
A|-----------|-----------|
E|-----------|-----------|

End on this chord(A):
E|-------|
B|-------|
G|-------|
D|-7-----|
A|-7-----|
E|-5-----|
Tap to rate this tab
 
# A B C D E F G H I J K L M N O P Q R S T U V W X Y Z