Song name
# A B C D E F G H I J K L M N O P Q R S T U V W X Y Z

Blink 182 - Shut Up tab

Intro:

e|--5-5-5-5-5-5-5-5---||----------------------------------||
B|--x-x-x-x-x-x-x-x---||---------5---------------5--------||
G|--2-2-2-2-2-2-2-2---||-----2-------2-------2-------2----||
D|--------------------||----------------------------------||
A|--------------------||--0-------------0-----------------||
E|--------------------||----------------------------------||


e|----------------------------------------------||
B|---------5---------------5--------------------||
G|-----2-------2-------2-------2----------------||
D|-----------------0----------------------------||
A|--4-------------------------------------------||
E|----------------------------------------------||


No guitar in verse.


Pre-Chorus:
e|---------------------||---------------------------------------||
B|---------------------||---------------------------------------||
G|---------------------||-----------------/14---14-14-14-14-----||
D|--12-12-12-12-12-12--||--7---7-7-7-7-----X----X--X--X--X--14--||
A|--12-12-12-12-12-12--||--7---7-7-7-7----/12---12-12-12-12-X---||
E|--10-10-10-10-10-10--||--5---5-5-5-5--0-------------------12--||


e|-----------------------||---------------------------------------||
B|-----------------------||---------------------------------------||
G|-----------------------||-----------------/14---14-14-14-14-----||
D|--12---12-12-12-12-12--||--7---7-7-7-7-----X----X--X--X--X--14--||
A|--12---12-12-12-12-12--||--7---7-7-7-7----/12---12-12-12-12-X---||
E|--10---10-10-10-10-10--||--5---5-5-5-5--0-------------------12--||


e|-------------------||----------------------------||
B|-------------------||----------------------------||
G|-------------------||----------------------------||
D|--9-9-9-9-9-9-9-9--||--12-12-12-12-12-12-12-12---||
A|--9-9-9-9-9-9-9-9--||--12-12-12-12-12-12-12-12---||
E|--7-7-7-7-7-7-7-7--||--10-10-10-10-10-10-10-10---||


Chorus:
e|---------------------------------------------||
B|---------------------------------------------||
G|--2-2-2-2-2-2-2-2-6-6-6-6-7-7-7-7------------||
D|--2-2-2-2-2-2-2-2-6-6-6-6-7-7-7-7------------||
A|--0-0-0-0-0-0-0-0-4-4-4-4-5-5-5-5------------||
E|---------------------------------------------||


Interlude:
e|--0--0--0--0--0--0--0--0--0--0--0--0--0--0--0--0--||
B|--X--X--X--X--X--X--X--X--X--X--X--X--X--X--X--X--||
G|--9--9--9--9--9--9--9--9--11-11-11-11-7--7--7--7--||
D|--X--X--X--X--X--X--X--X--X--X--X--X--X--X--X--X--||
A|--7--7--7--7--7--7--7--7--9--9--9--9--5--5--5--5--||
E|--------------------------------------------------||


Bridge:
e|--------------||-----------------------------------------------------||
B|--------------||-----------------------------------------------------||
G|------9----9--||--14-14-14-14-14-14-14-14-14-14-14-14-14-14-14-14-14-||
D|------X----X--||--X--X--X--X--X--X--X--X--X--X--X--X--X--X--X--X--X--||
A|--7---7----7--||--12-12-12-12-12-12-12-12-12-12-12-12-12-12-12-12-12-||
E|--------------||-----------------------------------------------------||

e|-----------------------------------------------------||
B|-----------------------------------------------------||
G|--13-13-13-13-13-13-13-13-11-11-11-11-11-11-11-11-/--||
D|--X--X--X--X--X--X--X--X--X--X--X--X--X--X--X--X-----||
A|--11-11-11-11-11-11-11-11-13-13-13-13-13-13-13-13-/--||
E|-----------------------------------------------------||

e|----------------------------------------------------||
B|----------------------------------------------------||
G|--/18-18-18-18-18-18-18-18-18-18-18-18-18-18-18-18--||
D|---X--X--X--X--X--X--X--X--X--X--X--X--X--X--X--X---||
A|--/16-16-16-16-16-16-16-16-16-16-16-16-16-16-16-16--||
E|----------------------------------------------------||

e|----------------------------------------------------||
B|----------------------------------------------------||
G|---16-16-16-16-16-16-16-16-14-14-14-14-14-14-14-14--||
D|---X--X--X--X--X--X--X--X--X--X--X--X--X--X--X--X---||
A|---14-14-14-14-14-14-14-14-12-12-12-12-12-12-12-12--||
E|----------------------------------------------------||

e|----------------------------------------------------||
B|----------------------------------------------------||
G|---14-14-14-14-14-14-14-14-14-14-14-14-14-14-14-14--||
D|---X--X--X--X--X--X--X--X--X--X--X--X--X--X--X--X---||
A|---12-12-12-12-12-12-12-12-12-12-12-12-12-12-12-12--||
E|----------------------------------------------------||

e|-----------------------------------------------------||
B|-----------------------------------------------------||
G|--13-13-13-13-13-13-13-13-11-11-11-11-11-11-11-11-/--||
D|--X--X--X--X--X--X--X--X--X--X--X--X--X--X--X--X-----||
A|--11-11-11-11-11-11-11-11-13-13-13-13-13-13-13-13-/--||
E|-----------------------------------------------------||

e|----------------------------------------------------||
B|----------------------------------------------------||
G|--/18-18-18-18-18-18-18-18-18-18-18-18-18-18-18-18--||
D|---X--X--X--X--X--X--X--X--X--X--X--X--X--X--X--X---||
A|--/16-16-16-16-16-16-16-16-16-16-16-16-16-16-16-16--||
E|----------------------------------------------------||

e|----------------------------------------------------||
B|----------------------------------------------------||
G|---16-16-16-16-16-16-16-16-19-19-19-19-19-19-19-19--||
D|---X--X--X--X--X--X--X--X--X--X--X--X--X--X--X--X---||
A|---14-14-14-14-14-14-14-14-17-17-17-17-17-17-17-17--||
E|----------------------------------------------------||


Then repeat Intro until the end.
Tap to rate this tab
# A B C D E F G H I J K L M N O P Q R S T U V W X Y Z