Song name
# A B C D E F G H I J K L M N O P Q R S T U V W X Y Z

Blink 182 - Waggy tab

I am 100% sure that this is correct. For strumming just go along with the rhythem.


INTRO

   A Asus4 A
E|-------------|
B|---3-2---3-2-|
G|---2-2---2-2-|X2
D|-2-----2-----|X2
A|-0-----0-----|
E|-------------|

RIFF 1

  A                                                       F#m           D
E|-------------------------------------------------------------------------|
B|-------------------------------------------------------------------------|
G|-6--6-6---6-6--6-6-6-6-6-6-6-6--6--6-6---6-6/9----7----6-7-9-----------7-|
D|-x--x-x---x-x--x-x-x-x-x-x-x-x--x--x-x---x-x-x----x----x-x-x-7-7-7-7-7-x-|
A|-4--4-4---4-4--4-4-4-4-4-4-4-4--4--4-4---4-4/7----5----4-5-7-x-x-x-x-x-5-|
E|-------------------------------------------------------------5-5-5-5-5---|

CONTINUED^...

E|------------|
B|------------|
G|9-----------|
D|x-7-7-7-7-7-|
A|7-x-x-x-x-x-|
E|--5-5-5-5-5-|

VERSE
1."watching your house..."
2."Is this all going to be..."

  *A Asus4 A               F#m F#m6 F#m F#m6 F#m
E|-----------------------------------------|
B|---3-2---3-2---3-2---3-2----3-2------3-2-|
G|---2-2---2-2---2-2---2-2----2-2------2-2-|
D|-2-----2-----2-----2-----4--------4------|
A|-0-----0-----0-----0-----4--------4------|
E|-------------------------2--------2------|
*Chord symbols reflect overall tonality.

CONTINUED^...
"Way"           "Wishing that i..."                           "I'm try..."
"game?"       "I've tried to..."                              "But what..."


   D     Dmaj7     D Dmaj7   A Asus4 A   F#m F#m6    D   Dmaj7   A
E|-----------------------------------------------------------------|
B|---3-3-2---3-2---3-2---3-2---3-2---3-2---3-2---3-2---3-2---3-3-2~|
G|---2-2-2---2-2---2-2---2-2---2-2---2-2---2-2---2-2---2-2---2-2-2~|
D|-0-------0-----2-----2-----2-----2-----4-----4-----0-----0-----2~|
A|-0-------0-----0-----0-----0-----0-----4-----4-----0-----0-----0~|
E|---------------------------------------2-----2-------------------|

CONTINUED^...
      "ing to be what you..."
   "Did you expect from me..."

           F#m                       D5                        E5
E|---------2-2-2-2-2-2-2-2-2-2-2-2---------------------------------|
B|-(2)-----2-2-2-2-2-2-2-2-2-2-2-2---------------------------------|
G|-(2)-----2-2-2-2-2-2-2-2-2-2-2-2---7-7-7-7-7-7-7-7-7-7-7-7-7-9---|
D|-(2)-----4-4-4-4-4-4-4-4-4-4-4-4---7-7-7-7-7-7-7-7-7-7-7-7-7-9---|
A|-(0)-----4-4-4-4-4-4-4-4-4-4-4-4-0-5-5-5-5-5-5-5-5-5-5-5-5-5-7-0-|
E|---------2-2-2-2-2-2-2-2-2-2-2-2-0-----------------------------0-|

CONTINUED^...
"It's so damn hard to keep..."
"You say that you're starting..."


   A                       F#m
E|-------------------------2-2-2-2-2-2-2-2-2-2-2-2---|
B|-2~----------------------2-2-2-2-2-2-2-2-2-2-2-2---|
G|-2~----------------------2-2-2-2-2-2-2-2-2-2-2-2---|
D|-2~----------------------4-4-4-4-4-4-4-4-4-4-4-4---|
A|-0~----------------------4-4-4-4-4-4-4-4-4-4-4-4-0-|
E|-------------------------2-2-2-2-2-2-2-2-2-2-2-2-0-|

CONTINUED^...
  "Week."
  "Too."

   D5
E|---------------------------------|
B|---------------------------------|
G|-7-7-7-7-7-7-7-7-7-7-7-7-7-7-7-7-|
D|-7-7-7-7-7-7-7-7-7-7-7-7-7-7-7-7-|
A|-5-5-5-5-5-5-5-5-5-5-5-5-5-5-5-5-|
E|---------------------------------|

CHORUS
"I think you need some time alone..."
"I don't wanna live this lie again..."

   F#m         D             B
E|-2-2---2-2---------------------------------------------|
B|-2-2---2-2---7--7-7--7-7---4--4--4-4-4-4---4-4---4-4---|
G|-2-2---2-2---7--7-7--7-7---4--4--4-4-4-4---4-4---4-4---|
D|-4-4---4-4---7--7-7--7-7-0-4--4--4-4-4-4---4-4---4-4---|
A|-4-4---4-4---5--5-5--5-5-0-2--2--2-2-2-2---2-2---2-2-0-|
E|-2-2---2-2-0-----------------------------------------0-|

CONTINUED^...
"You say you want..."
"I know i'll get it right..."

   F#m              D                     A
E|-2----2----2---2--------------------------------------------|
B|-2----2----2---2----7----7--7----7--7---2-2-2-2-2-2-2-2-2-2-|
G|-2----2----2---2----7----7--7----7--7---2-2-2-2-2-2-2-2-2-2-|
D|-4----4----4---4----7----7--7----7--7---2-2-2-2-2-2-2-2-2-2-|
A|-4----4----4---4----5----5--5----5--5-0-0-0-0-0-0-0-0-0-0-2-|
E|-2----2----2---2--0-------------------0---------------------|
  
CONTINUED^...
"Open your eyes..."
"open your eyes..."

   F#m          D                B
E|-2--2---2-2---------------------------------------------------|
B|-2--2---2-2---7----7-7---7-7---4--4----4-4-4-4----4-4---4-4---|
G|-2--2---2-2---7----7-7---7-7---4--4----4-4-4-4----4-4---4-4---|
D|-4--4---4-4---7----7-7---7-7-0-4--4----4-4-4-4----4-4---4-4---|
A|-4--4---4-4---5----5-5---5-5-0-2--2----2-2-2-2----2-2---2-2-0-|
E|-2--2---2-2-0-----------------------------------------------0-|

CONTINUED^...
                           TO CODA
   F#m         D
E|-2-2---2-2-------------------|
B|-2-2---2-2---7---7-7---7-7---|
G|-2-2---2-2---7---7-7---7-7---|
D|-4-4---4-4---7---7-7---7-7-0-|
A|-4-4---4-4---5---5-5---5-5-0-|
E|-2-2---2-2-0-----------------|

INTERLUDE
"Own."

RIFF 1 
VERSE
X2


CODA
"then"

   A                                                  N.C(F#m)  (D)
                                                      Palm muted------
E|---------------------------------------------------------------------|
B|-2~-------------2~------2~------2~------2~------2--------------------|
G|-2~-------------2~------2~------2~------2~------2--------------------|
D|-2~-------------2~------2~------2~------2~------2--------------------|
A|-0~-------------0~------0~------0~------0~------0---0---0------0---0-|
E|---------------------------------------------------------------------|


GUITAR SOLO

   N.C.(A)
E|-----------------------------------------------------------------|
B|-----------------------------------------------------------------|
G|-----------------------------------------------------------------|
D|-----------------------------------------------------------------|
A|-4h0-0-5h0-0-4h0-0-5h0-0-4h0-5h0-4h0-0-5h0-0-4h0-0-5h0-0-4h0-5h0-|
E|-----------------------------------------------------------------|

CONTINUED^...

   (F#m)                           (D)
E|-----------------------------------------------------------------|
B|-----------------------------------------------------------------|
G|-----------------------------------------------------------------|
D|-----------------------------------------------------------------|
A|-4h0-0-5h0-0-4h0-0-5h0-0-4h0-5h0-4h0-0-5h0-0-4h0-0-5h0-0-4h0-5h0-|
E|-----------------------------------------------------------------|

OUTRO

RIFF 1
VERSE
X2

            A              F#m    D      A
E|-------------------------2------2--------|
B|----------2~------2------2------3------2-|
G|----------2~------2------2------2------2-|
D|----------2~------2------4------0------2-|
A|----------0~------0------4------0------0-|
E|-------------------------2---------------|

Sorry if i didn't get the strumming pattern right...although i know that every 
tab and chord is 100% right.
Tap to rate this tab
 
# A B C D E F G H I J K L M N O P Q R S T U V W X Y Z