Song name
# A B C D E F G H I J K L M N O P Q R S T U V W X Y Z

Blink 182 - Apple Shampoo tab

i am 100% sure that this is right.

FAST ROCK = 216

VERSE A
1. "She didn't mean to..."
2. "It isn't exciting..."

   C5
E|------------------------------------------------------------|
B|------------------------------------------------------------|
G|-5~------------5~------------5~------------5~------------5~-|
D|-5~------------5~------------5~------------5~------------5~-|
A|-3~------------3~------------3~------------3~------------3~-|
E|------------------------------------------------------------|

CONTINUED...
"But sometimes the hardest..."
"Of kind words turned..."

E|-----------------------------------------------------------|
B|-----------------------------------------------------------|
G|-(5)~----------5~------------5~------------5~------------5-|
D|-(5)~----------5~------------5~------------3~------------5-|
A|-(3)~----------3~------------3~------------3~------------3-|
E|-----------------------------------------------------------|

CONTINUED...
"The good intensions that you had..."
"Both geting tired of punk rock clubs..."

   A5                                F
E|-----------------------------------1-1-------------------------------|
B|-----------------------------------1-1-------------------------------|
G|-2-2-------------------------------2-2-------------------------------|
D|-2-2-------------------------------3-3-------------------------------|
A|-0-0-------------------------------3-3-------------------------------|
E|-----------------------------------1-1-------------------------------|

CONTINUED...
"And although she saw the mark..."
"Bands.    The start was..."
                                         LET RING--------LET RING-------
   A5                                 D                  F
E|------------------------------------2--2------------------1-----------|
B|------------------------------------3--3-----------------------1------|
G|-2-2--------------------------------2--2---------------2------------3-|
D|-2-2--------------------------------0--0----0--0-------3--------------|
A|-0-0----------------------------------------------0--0-3--------------|
E|-------------------------------------------------------1--------------|

INTERLUDE/RIFF A
SLOWER=192
"End."
"ends."
                                         3."And she said..."
  LET RING THROUGHOUT
   C                  F                  G           F
E|---------------------------------------------------------------------|
B|-----------------------------------------0---------------------------|
G|-5------5-------5-5-5------5-------5-5-5-------5-5-5------5------5-5-|X2
D|---5---------5--------5---------5-----------5--------5---------5-----|X2
A|------3------------------3------------------------------3------------|
E|---------------------------------------------------------------------|

VERSE/RIFF B
"It could never survive with..."
4."And now she knows too much..."

   P.M. P.M..   P.M..  P.M.. P.M..  P.M...  P.M...   P.M..  P.M.
   C5                          N.C.(G)         (F)
E|--------------------------------------------------------------|
B|--------------------------------------------------------------|
G|--------------------------------------------------------------|X2
D|---2-------2-------3------3-----5-------5--------3------3-----|X2
A|-3----3--3----3--3----3-3---3-3-----3-3-----3-3-----3-3----3--|
E|--------------------------------------------------------------|
        FOR CHORDS THE SECOND TIME YOU PLAY IT, IT WILL BE...
  (C)             (F)            (G)             (F)    (Like the interlude)
"We may never come back..."
"I'll pretend that i'm fine..."

CHORUS
"Cool.        I never wanted...."

   Am                                  F
E|-5-5----5-5-5----5-5-5----5-5-5---5--1-1----1-1-1----1--1-1--1-1-1--1-|
B|-5-5----5-5-5----5-5-5----5-5-5---5--1-1----1-1-1----1--1-1--1-1-1--1-|
G|-5-5----5-5-5----5-5-5----5-5-5---5--2-2----2-2-2----2--2-2--2-2-2--2-|
D|-7-7----7-7-7----7-7-7----7-7-7---7--3-3----3-3-3----3--3-3--3-3-3--3-|
A|-7-7----7-7-7----7-7-7----7-7-7---7--3-3----3-3-3----3--3-3--3-3-3--3-|
E|-5-5----5-5-5----5-5-5----5-5-5---5--1-1----1-1-1----1--1-1--1-1-1--1-|

CONTINUED
"On..."                                        "But my chance is gone."


   Am                                  D             F
E|-5-5----5-5-5----5-5-5----5-5-5---5-------------------1-----------|
B|-5-5----5-5-5----5-5-5----5-5-5---5--7-7-7-7-7-7-7---------1------|
G|-5-5----5-5-5----5-5-5----5-5-5---5--7-7-7-7-7-7-7-2------------3-|
D|-7-7----7-7-7----7-7-7----7-7-7---7--7-7-7-7-7-7-7-3--------------|
A|-7-7----7-7-7----7-7-7----7-7-7---7--5-5-5-5-5-5-5-3--------------|
E|-5-5----5-5-5----5-5-5----5-5-5---5----------------1--------------|

BRIDGE
                            "I know just where....                 I"

   C                              G
E|--------------------------------3-3----3-3-3----3--3-3----3-3-3------|
B|-5-5--5-5-5--5-5-5--5-5-5----5--3-3----3-3-3----3--3-3----3-3-3------|
G|-5-5--5-5-5--5-5-5--5-5-5----5--4-4----4-4-4----4--4-4----4-4-4------|
D|-5-5--5-5-5--5-5-5--5-5-5----5--5-5----5-5-5----5--5-5----5-5-5------|
A|-3-3--3-3-3--3-3-3--3-3-3----3--5-5----5-5-5----5--5-5----5-5-5------|
E|--------------------------------3-3----3-3-3----3--3-3----3-3-3----0-|

CONTINUED...
"Stand a boy trapped..."


   F
E|-1-1----1-1-1----1--1-1----1-1-1----1--1-1----1-1-1---1---1-1--1-1-1----1|
B|-1-1----1-1-1----1--1-1----1-1-1----1--1-1----1-1-1---1---1-1--1-1-1----1|
G|-2-2----2-2-2----2--2-2----2-2-2----2--2-2----2-2-2---2---2-2--2-2-2----2|
D|-3-3----3-3-3----3--3-3----3-3-3----3--3-3----3-3-3---3---3-3--3-3-3----3|
A|-3-3----3-3-3----3--3-3----3-3-3----3--3-3----3-3-3---3---3-3--3-3-3----3|
E|-1-1----1-1-1----1--1-1----1-1-1----1--1-1----1-1-1---1---1-1--1-1-1----1|

CONTINUED...
               "I'll take what you're..."
  "Ohh,..."

   C                                    N.C.(D5)
E|------------------------------------------------------------------------|
B|-5-5----5-5-5----5-5-5----5-5-5----5------------------------------------|
G|-5-5----5-5-5----5-5-5----5-5-5----5--7-7----7-7-7---7---7-7--7-7-7----7|
D|-5-5----5-5-5----5-5-5----5-5-5----5--x-x----x-x-x---x---x-x--x-x-x----x|
A|-3-3----3-3-3----3-3-3----3-3-3----3--5-5----5-5-5---5---5-5--5-5-5----5|
E|------------------------------------------------------------------------|

CONTINUED...
            "With a walk on part of..."
   "Ohh,..."

   F                                     G                 N.C.
E|-1-1----1-1-1----1--1-1----1-1-1----1--3-3----3-3-3---3------------------|
B|-1-1----1-1-1----1--1-1----1-1-1----1--3-3----3-3-3---3------------------|
G|-2-2----2-2-2----2--2-2----2-2-2----2--4-4----4-4-4---4------------------|
D|-3-3----3-3-3----3--3-3----3-3-3----3--5-5----5-5-5---5------------------|
A|-3-3----3-3-3----3--3-3----3-3-3----3--5-5----5-5-5---5---0------2------2|
E|-1-1----1-1-1----1--1-1----1-1-1----1--3-3----3-3-3---3------------------|

Interlude
"in."

It is the exact same for chords on the interlude

PRE-CHORUS


   C5                                     G5                F5
E|-------------------------------------------------------------------------|
B|-------------------------------------------------------------------------|
G|-------------------------------------------------------------------------|
D|-5-5----5-5-5------------------------------------------------------------|
A|-3-3----3-3-3-------3-3----3-3-3-------5-5----5-5-5-------3-3--3-3-3-----|
E|-----------------3--1-1----1-1-1----0--3-3----3-3-3---0---1-1--1-1-1----0|
PLAY THE PRE-CHORUS TWICE! BUT FOR CHORDS ON THE SECOND TIME PLAYING IT INBETWEEN THE C5 
G5 YOU PLAY F5!

CHORUS


BRIDGE
   "Way.         Where are you..."


   G                                     D
E|-3-3----3-3-3----3--3-3----3-3-3----3------------------------------------|
B|-3-3----3-3-3----3--3-3----3-3-3----3--7-7----7-7-7---7---7-7--7-7-7----7|
G|-4-4----4-4-4----4--4-4----4-4-4----4--7-7----7-7-7---7---7-7--7-7-7----7|
D|-5-5----5-5-5----5--5-5----5-5-5----5--7-7----7-7-7---7---7-7--7-7-7----7|
A|-5-5----5-5-5----5--5-5----5-5-5----5--5-5----5-5-5---5---5-5--5-5-5----5|
E|-3-3----3-3-3----3--3-3----3-3-3----3------------------------------------|

CONTINUED...
"Running from?     Is it so hard..."

   F                                     G
E|-1-1----1-1-1----1--1-1----1-1-1----1--3-3----3-3-3---3---3--------3----3|
B|-1-1----1-1-1----1--1-1----1-1-1----1--3-3----3-3-3---3---3--------3----3|
G|-2-2----2-2-2----2--2-2----2-2-2----2--4-4----4-4-4---4---4--------4----4|
D|-3-3----3-3-3----3--3-3----3-3-3----3--5-5----5-5-5---5---5--------5----5|
A|-3-3----3-3-3----3--3-3----3-3-3----3--5-5----5-5-5---5---5--------5----5|
E|-1-1----1-1-1----1--1-1----1-1-1----1--3-3----3-3-3---3---3--------3----3|

CONTINUED...
"Feeling scared remember the time..."


  N.C.(D5)                               F
E|---------------------------------------1-1----1-1-1---1---1-1--1-1-1----1|
B|---------------------------------------1-1----1-1-1---1---1-1--1-1-1----1|
G|-7-7----7-7-7----7--7-7----7-7-7----7--2-2----2-2-2---2---2-2--2-2-2----2|
D|-x-x----x-x-x----x--x-x----x-x-x----x--3-3----3-3-3---3---3-3--3-3-3----3|
A|-5-5----5-5-5----5--5-5----5-5-5----5--3-3----3-3-3---3---3-3--3-3-3----3|
E|---------------------------------------1-1----1-1-1---1---1-1--1-1-1----1|

CONTINUED...
"Thing.                             You know that it meant..."
"          (Everything.)"

   G                                                       N.C.
E|-3-3----3-3-3----3--3-3----3-3-3----3--3-3----3-3-3---3------------------|
B|-3-3----3-3-3----3--3-3----3-3-3----3--3-3----3-3-3---3------------------|
G|-4-4----4-4-4----4--4-4----4-4-4----4--4-4----4-4-4---4------------------|
D|-5-5----5-5-5----5--5-5----5-5-5----5--5-5----5-5-5---5------------------|
A|-5-5----5-5-5----5--5-5----5-5-5----5--5-5----5-5-5---5---0--------2----2|
E|-3-3----3-3-3----3--3-3----3-3-3----3--3-3----3-3-3---3------------------|

OUTRO
"ME"
                                        "You know that it meant..."

   C
E|-----------------------------------------------------------------------|
B|-1-----------1--------------------1-----1---1-------------------1----1-|
G|----0-------------0----------------------------0-------0---------------|X2
D|----------------------3-------3--------------------3--------3----------|X2
A|----------3--------------3---------------------------------------------|
E|-----------------------------------------------------------------------|

INTERLUDE
X2
"Me."

E|-----------------------------------------------------------------------|
B|----------------------------------------------------5------------------|
G|----------------------------------------------------5------------------|
D|----------------------------------------------------5------------------|
A|----------------------------------------------------3------------------|
E|-----------------------------------------------------------------------|

Sorry if the strumming pattern is wrong bit i know every chord and tab is correct. have 
playing it!
Tap to rate this tab
# A B C D E F G H I J K L M N O P Q R S T U V W X Y Z