Song name
# A B C D E F G H I J K L M N O P Q R S T U V W X Y Z

Blink 182 - Dysentery Gary tab

Band: Blink 182
Song: Dysentery Gary
Album: Enema of the State
E-mail: dietskateboarding@gmail.com
Tabbed by: Matt

If you guys find anything that should be added in, replaced, or taken out, then
just email me. Enjoy!

xxxx  =  Palm Mute
~~~~  =  Let Ring

Intro (Guitar 1):
e -----------------------------------------------------------------|
B -----------------------------------------------------------------| Play once
G -------------------------------------------------------------7~--| before
D –4-4-4-0-0-0-5-5-5-4-4-4-0-0-0-------4-4-4-------------------7~--| Guitar 2
A -------------------------------------------0-0-0—4-4-4-4-4-4-5~--| comes in.
E -------------------------------3-3-3-----------------------------|

Intro (Guitar 2):
e -------------------|
B -------------------| Play twice
G -777777------------| after Intro One
D –777777-5555-7777—-| is played once.
A -555555-5555-7777--|
E --------3333-5555--|

Verse:
e --------------------------------------------|
B --------------------------------------------|
G -7-xxxx-7--7-xxxx-7-------------------------| Play this twice.
D –7-xxxx-7--7-xxxx-7--5-xxxx-5--7-xx-7-x-77--|
A -5-xxxx-5--5-xxxx-5--5-xxxx-5--7-xx-7-x-77--|
E ---------------------3-xxxx-3--5-xx-5-x-55--|

Riff: (Played between Verse and Pre-Chorus when Mark has a lil’ solo)
e ---------------------------------|
B ---------------------------------|
G -7-7-7-7-7-7-7-7-7-7-7-7-6-6-6-6-|
D –--------------------------------|
A ---------------------------------|
E ---------------------------------|


Pre-Chorus: “he’s a player, diarrhea giver...”
e -------------------------|
B -------------------------|
G -7777777777--------------|
D –7777777777-55555-77777--|
A -5555555555-55555-77777--|
E ------------33333-55555--|

Chorus (repeat until Tom goes back into the Intro):
e -15-14-------------15-14-------------|
B -------15----------------15----------|
G ----------12-12-12----------12-12-12-|
D -------------------------------------|
A -------------------------------------|
E -------------------------------------|

Intro (Guitar 1):
e -----------------------------------------------------------------|
B -----------------------------------------------------------------| Play once
G -------------------------------------------------------------7~--| before
D –4-4-4-0-0-0-5-5-5-4-4-4-0-0-0-------4-4-4-------------------7~--| Guitar 2
A -------------------------------------------0-0-0—4-4-4-4-4-4-5~--| comes in.
E -------------------------------3-3-3-----------------------------|

Intro (Guitar 2):
e -------------------|
B -------------------| Play twice
G -777777------------| after Intro One
D –777777-5555-7777—-| is played once.
A -555555-5555-7777--|
E --------3333-5555--|

Verse:
e --------------------------------------------|
B --------------------------------------------|
G -7-xxxx-7--7-xxxx-7-------------------------| Play this twice.
D –7-xxxx-7--7-xxxx-7--5-xxxx-5--7-xx-7-x-77--|
A -5-xxxx-5--5-xxxx-5--5-xxxx-5--7-xx-7-x-77--|
E ---------------------3-xxxx-3--5-xx-5-x-55--|

Riff: (Played between Verse and Pre-Chorus when Mark has a lil’ solo)
e ---------------------------------|
B ---------------------------------|
G -7-7-7-7-7-7-7-7-7-7-7-7-6-6-6-6-|
D –--------------------------------|
A ---------------------------------|
E ---------------------------------|


Pre-Chorus: “he’s a player, diarrhea giver...”
e -------------------------|
B -------------------------|
G -7777777777--------------|
D –7777777777-55555-77777--|
A -5555555555-55555-77777--|
E ------------33333-55555--|

Chorus (repeat until Tom goes back into the Intro):
e -15-14-------------15-14-------------|
B -------15----------------15----------|
G ----------12-12-12----------12-12-12-|
D -------------------------------------|
A -------------------------------------|
E -------------------------------------|

Interlude:
e --------------------------------------------------------|
B --------------------------------------------------------|
G ----------------------------------------------------7~--|
D –--5-4-4---0------5-4-4---0------5-4-4---0------5-4-7~--|
A -5--------------5--------------5--------------5-----5~--|
E ---------5--------------5--------------5----------------|

Chorus (Repeat until final riff)
e -15-14-------------15-14-------------|
B -------15----------------15----------|
G ----------12-12-12----------12-12-12-|
D -------------------------------------|
A -------------------------------------|
E -------------------------------------|

Tom’s Last Riff (Kinda like Intro):

e -----------------------------------------------|
B -----------------------------------------------| Play once
G -------------------------------------------7~--|
D –4-4-4-0-0-0-5-5-5-4-4-4-0-0-0-------------7~--|
A -----------------------------------------—-5~--|
E -------------------------------3-3-3-----------|
Tap to rate this tab
 
# A B C D E F G H I J K L M N O P Q R S T U V W X Y Z