Song name
# A B C D E F G H I J K L M N O P Q R S T U V W X Y Z

Blink 182 - Wrecked Him tab

Hey guys. This is my first tab so it probably won't be accurate.
But anyway.
This is Wrecked Him by Blink 182, from the 7" They Came to Conquer Uranus.

(Starts with bass guitar).

Intro x2:
e|-----------------------------------------------------------------|
B|-----------------------------------------------------------------|
G|-------7-7-7-6-6-------6-6-6-7-7-------7-7-7-6-6-------6-6-6-7-7-|
D|-4-4-4-----------5-5-5-----------7-7-7-----------5-5-5-----------|
A|-----------------------------------------------------------------|
E|-----------------------------------------------------------------|

Verse x4:
E|-------------------------------------|
B|-------------------------------------|
G|-------------------------------------|
D|44444444-55555555-77777777-55555555--|
A|55555555-55555555-77777777-55555555--|
E|00000000-33333333-55555555-33333333--|

CHORUS: x4:
E|-------------------------------------------------|
B|-------------------------------------------------|
G|-7-7-777-----------------------------------------|
D|-7-7-777--2-2-222--5-5-555---7-------------------|
A|-5-5-555--2-2-222--5-5-555---7-------------------|
E|----------0-0-000--3-3-333---5*5-*5-*5-*5-*5-*5--|

Intro

2nd Verse x2:
E|--------------------------------------------|
B|--------------------------------------------|
G|--------------------------------------------|
D|5-----4-----5------5----7---------5-----5---|
A|4--55---5---5-----------7----7----5---------|
E|0-----------3---33---3--5-55---5--3--33---3-|
     ..   .       ..   .    ..   .     ..   .

2nd Verse cont’d x2:
e|-------------------------------------|
B|-------------------------------------|
G|-------------------------------------|
D|44444444-55555555-77777777-55555555--|
A|55555555-55555555-77777777-55555555--|
E|00000000-33333333-55555555-33333333--|

Chorus

Bridge (During which there is a bass solo):
e|--------------|
B|--------------|
G|-7~-----------|
D|-7~-----------|
A|-5~-----------|
E|--------------|

Solo:
e|-------------------------------------------|
B|-------------------------------------------|
G|-------------------------------------------|
D|-----------------------------4-4h5p4-------|
A|-5-5-5-5-4h5-5-5-5-4h5-7-5-4---------5-----|
E|-------------------------------------------|
   . .

cont’d:
e|-------------------------------------------|
B|-------------------------------------------|
G|-------------------------------------------|
D|-----------------------------4-4h5p4---5---|
A|-5-5-5-5-4h5-5-5-5-4h5-7-5-4---------5-----|
E|-------------------------------------------|
   . .

cont’d:
e|------------------------------------|
B|------------------------------------|
G|-7p6---7p6---9p6---7p6---7p6--------|
D|-----6-----6-----6----6------6------|
A|------------------------------------|
E|------------------------------------|

(The 6's on the D string aren't crucial here. It's easier to play without them, but 
there).

cont’d x2:
e|------------------------------------|
B|------------------------------------|
G|-7p6---9p6---7p6---7p6---7p6--------|
D|-----6-----6-----6----6------6------|
A|------------------------------------|
E|------------------------------------|

cont’d:
e|----------------------------|
B|----------------------------|
G|----------------------------|
D|--7-5-4/5-7-5p4-5p4---------|
A|--------------------5~------|
E|----------------------------|

Pick slide

x4:
E|-------------------------------------|
B|-------------------------------------|
G|-------------------------------------|
D|44444444-55555555-77777777-55555555--|
A|55555555-55555555-77777777-55555555--|
E|00000000-33333333-55555555-33333333--|

Chorus

End on:
E|------------------|
B|------------------|
G|-7~---------------|
D|-7~---------------|
A|-5~---------------|
E|------------------|


And there you have it. Any questions, email me at obder@hotmail.co.uk
See you later.
Tap to rate this tab
# A B C D E F G H I J K L M N O P Q R S T U V W X Y Z