Song name
# A B C D E F G H I J K L M N O P Q R S T U V W X Y Z

Blink 182 - Time tab

----------------------------------------------------------------------------
                       TIME - Blink-182
----------------------------------------------------------------------------

Tabbed by:drumbumpv
Email:i dont think so

Tuning:Standard

Intro part 1 (7 measures of bass)
e|---------------------5-5-5---2-2-2---4-4-4---2-2-2-----------------------|
B|---7-7-7-7-7-7-7-7---5-5-5---3-3-3---5-5-5---3-3-3-----------------------|
G|---7-7-7-7-7-7-7-7---6-6-6---2-2-2---4-4-4---2-2-2-----------------------|
D|---7-7-7-7-7-7-7-7---7-7-7-----------------------------------------------|
A|-------------------------------------------------------------------------|
E|-------------------------------------------------------------------------|
                      ^ HERE TO HERE IS PLAYED TWICE ^

Intro part 2
e|-------------------------------------------------------------------------|
B|-------------------------------------------------------------------------|
G|-----------------------9--9-9-9--9-9-9-9--11--11-11-11--11-11-11-11------|
D|---7--7-7-7--7-7-7-7---9--9-9-9--9-9-9-9--11--11-11-11--11-11-11-11------|
A|---7--7-7-7--7-7-7-7---7--7-7-7--7-7-7-7--9---9--9--9---9--9--9--9-------|
E|---5--5-5-5--5-5-5-5-----------------------------------------------------|

e|-------------------------------------------------------------------------|
B|-------------------------------------------------------------------------|
G|---7--7-7-7--7-7-7-7-----------------------------------------------------|
D|---7--7-7-7--7-7-7-7-----------------------------------------------------|
A|---5--5-5-5--5-5-5-5-----------------------------------------------------|
E|-------------------------------------------------------------------------|

Play Intro part 2 twice

Verse 1
e|-------------------------------------------------------------------------|
B|-------------------------------------------------------------------------|
G|----------9-99----------7-77---------------------------------------------|
D|---7------9-99---4------7-77---------------------------------------------|
A|---7-77---7-77---4-44---5-55---------------------------------------------|
E|---5-55----------2-22----------------------------------------------------|
  P.M. ..            ..         Play Verse 1 4 times

Chorus
e|-------------------------------------------------------------------------|
B|-------------------------------------------------------------------------|
G|----------9-~~~--11-~~~---7-~~~------------------------------------------|
D|---7-~~~--9-~~~--11-~~~---7-~~~------------------------------------------|
A|---7-~~~--7-~~~---9-~~~---5-~~~------------------------------------------|
E|---5-~~~-----------------------------------------------------------------|
            Play the chorus twice

play intro part 1 again (just the part where it says to play twice)
play intro part 2 again
play verse 1 as verse 2
play the chrous again

Outro
e|-------------------------------------------------------------------------|
B|-------------------------------------------------------------------------|
G|--------------------------------9--9-9--9-9-9-9--99--9-9-9---------------|
D|---7--7-7--7-7-7-7--77--7-7-7---9--9-9--9-9-9-9--99--9-9-9---------------|
A|---7--7-7--7-7-7-7--77--7-7-7---7--7-7--7-7-7-7--77--7-7-7---------------|
E|---5--5-5--5-5-5-5--55--5-5-5--------------------------------------------|

e|-------------------------------------------------------------------------|
B|-------------------------------------------------------------------------|
G|--7--7-7--7-7-7-7--77--7-7-7---7--7-7--7-7-7-7--77--7-7-7----------------|
D|--7--7-7--7-7-7-7--77--7-7-7---7--7-7--7-7-7-7--77--7-7-7----------------|
A|--5--5-5--5-5-5-5--55--5-5-5---5--5-5--5-5-5-5--55--5-5-5----------------|
E|-------------------------------------------------------------------------|

play outro 4 times

End On
e|-------------------------------------------------------------------------|
B|-------------------------------------------------------------------------|
G|-------------------------------------------------------------------------|
D|---7-~~~~~~~~------------------------------------------------------------|
A|---7-~~~~~~~~------------------------------------------------------------|
E|---5-~~~~~~~~------------------------------------------------------------|

THATS IT!!!!!!!! pretty easy...yep...also my first tab...PLEEZE RATE!!!!!!

Tap to rate this tab
# A B C D E F G H I J K L M N O P Q R S T U V W X Y Z