Song name
# A B C D E F G H I J K L M N O P Q R S T U V W X Y Z

Blink 182 - Emo tab

Tuning:Standard 

K so in this tab there are parts that are played really fast and/or for a
 long time so rather than put down every last note i will sometimes just
 tel you to keep repeating the note. Just a head up.

Intro
e|---------------------------------------------------------------------------|
B|---------------------------------------------------------------------------|
G|---------------------------------------------------------------------------|
D|---------------------------------------------------------------------------|
A|---------------------------------------------------------------------------|
E|--5--5--5--5--5--5--5--5-(and so on and so on *notice the harmonics tho!)--|
    +  +  +  +  +  +  +  +

Riff 1 (played twice before the verse kicks in)

e|---------------------------------------------------------------------------|
B|---------------------------------------------------------------------------|
G|------2------1---------------------------------2--------1------------------|
D|--------------------2~~-----------2------------------------------2/4-------|
A|--------------------x------------------0-----------------------------------|
E|--0-----------------2~~----------------------------------------------------|


Verse Part 1 (played twice before verse part two)

e|---------------------------------------------------------------------------|
B|---------------------------------------------------------------------------|
G|---------------------------------------------------------------------------|
D|-9-9-9-9-9-9-9-9-9-9-9-9-9-9-9-9-11-11-11-11-11-11-11-7---7-7-7------------|
A|-9-9-9-9-9-9-9-9-9-9-9-9-9-9-9-9-11-11-11-11-11-11-11-7---7-7-7------------|
E|-7-7-7-7-7-7-7-7-7-7-7-7-7-7-7-7-9--9--9--9--9--9--9--5---5-5-5------------|

Verse part 2 (played twice) *Riff one is also played in the background of this part*
e|---------------------------------------------------------------------------|
B|---------------------------------------------------------------------------|
G|---------------------------------------------------------------------------|
D|-2-2-2-2-2-2-2-2-2-2-2-2-2-2--6-6-6-6-6--7-7-7-7-7-7-7---------------------|
A|-2-2-2-2-2-2-2-2-2-2-2-2-2-2--6-6-6-6-6--7-7-7-7-7-7-7---------------------|
E|-0-0-0-0-0-0-0-0-0-0-0-0-0-0--4-4-4-4-4--5-5-5-5-5-5-5---------------------|

Chorus (is the same thing played over and over)
e|---------------------------------------------------------------------------|
B|---------------------------------------------------------------------------|
G|-9-9-9-9-9-9-9-9-9-9-9-----------------------------------------------------|
D|-x-x-x-x-x-x-x-x-x-x-x---(Over and over until the chorus is done)----------|
A|-7-7-7-7-7-7-7-7-7-7-7-----------------------------------------------------|
E|---------------------------------------------------------------------------|

 Solo Or Fill (Whatever you want to call it, itis played pretty fast)

e|---------------------------------------------------------------------------|
B|---------------------------------------------------------------------------|
G|-13-13-13-13-13-13-13-13-13-13-13-13-13-13-13-13-13-13-13-13-13-13-13-13---|
D|-x--x--x--x--x--x--x--x--x--x--x--x--x--x--x--x--x--x--x--x--x--x--x--x----|
A|-11-11-11-11-11-11-11-11-11-11-11-11-11-11-11-11-11-11-11-11-11-11-11-11---|
E|-0--0--0--0--0--0--0--0--0--0--0--0--0--0--0--0--0--0--0--0--0--0--0--0----|

e|---------------------------------------------------------------------------|
B|---------------------------------------------------------------------------|
G|-14-14-14-14-14-14-14-14-14-14-14-14-14-14-14-14-14-14-14-14-14-14-14-14---|
D|-x--x--x--x--x--x--x--x--x--x--x--x--x--x--x--x--x--x--x--x--x--x--x--x----|
A|-12-12-12-12-12-12-12-12-12-12-12-12-12-12-12-12-12-12-12-12-12-12-12-12---|
E|-0--0--0--0--0--0--0--0--0--0--0--0--0--0--0--0--0--0--0--0--0--0--0--0----|

e|---------------------------------------------------------------------------|
B|---------------------------------------------------------------------------|
G|-15-15-15-15-15-15-15-15-15-15-15-15-15-15-15-15-15-15-15-15-15-15-15-15---|
D|-x--x--x--x--x--x--x--x--x--x--x--x--x--x--x--x--x--x--x--x--x--x--x--x----|
A|-13-13-13-13-13-13-13-13-13-13-13-13-13-13-13-13-13-13-13-13-13-13-13-13---|
E|-0--0--0--0--0--0--0--0--0--0--0--0--0--0--0--0--0--0--0--0--0--0--0--0----|

e|---------------------------------------------------------------------------|
B|---------------------------------------------------------------------------|
G|-16-16-16-16-16-16-16-16-16-16-16-16-16-16-16-16-16-16-16-16-16-16-16-16---|
D|-x--x--x--x--x--x--x--x--x--x--x--x--x--x--x--x--x--x--x--x--x--x--x--x----|
A|-14-14-14-14-14-14-14-14-14-14-14-14-14-14-14-14-14-14-14-14-14-14-14-14---|
E|-0--0--0--0--0--0--0--0--0--0--0--0--0--0--0--0--0--0--0--0--0--0--0--0----|

All of the 0s on the E string are optional. they are played on the recording
so if you can make it sound good do it. if you cant, dont.

Outro                                               End on
e|------------------------------------------------|-------------------------|
B|------------------------------------------------|--------------------------|
G|------------------------------------------------|--------------------------|
D|------2--2--2--2--2--2--4--4--4--4--7--7--7--7--|-2~-----------------------|
A|-2----2--2--2--2--2--2--4--4--4--4--7--7--7--7--|-2~-----------------------|
E|---0--0--0--0--0--0--0--2--2--2--2--5--5--5--5--|-0~-----------------------|



| /  slide up
| \  slide down
| h  hammer-on
| p  pull-off
| ~  vibrato
| +  harmonic
| x  Mute note
===============================================================================
Tap to rate this tab
# A B C D E F G H I J K L M N O P Q R S T U V W X Y Z