Song name
# A B C D E F G H I J K L M N O P Q R S T U V W X Y Z

Blink 182 - Toast And Bananas tab

blink-182
Toast And Bananas
Cheshire Cat 1994


e|-----------------------------------------------------------------|
B|-----------------------------------------------------------------| Intro Riff
G|-----------------------------------------------------------------|
D|---------------------------------------------4-6-7-7-7-7-7-7-6-4-|
A|-7-7-7-7-7-7-7-7-2-2-2-2-2-2-2-2-4-4-4-4-4-4-2-4-5-5-5-5-5-5-4-2-|
E|-5-5-5-5-5-5-5-5-0-0-0-0-0-0-0-0-2-2-2-2-2-2---------------------|x3
   . . . . .   .   . . . . .   .   

e|----------------------------------------------------|
B|----------------------------------------------------| 
G|-------------------------------------------------7~-|
D|---------------------------------------------4-6-7~-|
A|-7-7-7-7-7-7-7-7-2-2-2-2-2-2-2-2-4-4-4-4-4-4-2-4-5~-|
E|-5-5-5-5-5-5-5-5-0-0-0-0-0-0-0-0-2-2-2-2-2-2--------|x1
   . . . . .   .   . . . . .   .

e|------------------------------------------------------------------|
B|------------------------------------------------------------------| Riff A
G|------------------------------------------------------------------|
D|---------7-7-7-6-6-6----------------------------------------------|
A|-0-0-0-0-------------7-7-5-5-4-4--0-0-0-0-7-7-7-5-5-4-5-7-5-4-0-0-|
E|------------------------------------------------------------------|x4


e|-----------------------------------------------------------------------------------------|
B|-----------------------------------------------------------------------------------------| Verse
G|-------------------------------------------------------------------------7-7-7-7-7-7-7-7-|
D|-7--7-7-7--7-7-7--7-7-7--2--2-2-2--2-2-2--2-2-2--4--4-4-4--4-4-4--4-4-4--7-7-7-7-7-7-7-7-|
A|-7--7-7-7--7-7-7--7-7-7--2--2-2-2--2-2-2--2-2-2--4--4-4-4--4-4-4--4-4-4--5-5-5-5-5-5-5-5-|
E|-5--5-5-5--5-5-5--5-5-5--0--0-0-0--0-0-0--0-0-0--2--2-2-2--2-2-2--2-2-2------------------|x4
      . . .  . . .  . . .     . . .  . . .  . . .     . . .  . . .  . . .

e|----------------------------------------------------------------------------------|
B|----------------------------------------------------------------------------------| Chorus
G|--------9-9-9--11-11-11--7-7-7------------------9-9-9-9-9-9-9-9-11-11-11-11-11-11-|
D|-7-7-7--9-9-9--11-11-11--7-7-7--7-7-7-7-7-7-7-7-9-9-9-9-9-9-9-9-11-11-11-11-11-11-|
A|-7-7-7--7-7-7---9--9--9--5-5-5--7-7-7-7-7-7-7-7-7-7-7-7-7-7-7-7--9--9--9--9--9--9-|
E|-5-5-5--------------------------5-5-5-5-5-5-5-5-----------------------------------|x1

e|---------------------|
B|---------------------|
G|-9-9-7-7-7-7-7-7-7-7-|
D|-9-9-7-7-7-7-7-7-7-7-|
A|-7-7-5-5-5-5-5-5-5-5-|
E|---------------------|x1

e|------------------------------------------------------------------|
B|------------------------------------------------------------------| Riff A
G|------------------------------------------------------------------|
D|---------7-7-7-6-6-6----------------------------------------------|
A|-0-0-0-0-------------7-7-5-5-4-4--0-0-0-0-7-7-7-5-5-4-5-7-5-4-0-0-|
E|------------------------------------------------------------------|x2

e|-----------------------------------------------------------------------------------------|
B|-----------------------------------------------------------------------------------------| Verse
G|-------------------------------------------------------------------------7-7-7-7-7-7-7-7-|
D|-7--7-7-7--7-7-7--7-7-7--2--2-2-2--2-2-2--2-2-2--4--4-4-4--4-4-4--4-4-4--7-7-7-7-7-7-7-7-|
A|-7--7-7-7--7-7-7--7-7-7--2--2-2-2--2-2-2--2-2-2--4--4-4-4--4-4-4--4-4-4--5-5-5-5-5-5-5-5-|
E|-5--5-5-5--5-5-5--5-5-5--0--0-0-0--0-0-0--0-0-0--2--2-2-2--2-2-2--2-2-2------------------|x2
      . . .  . . .  . . .     . . .  . . .  . . .     . . .  . . .  . . .

e|-----------------------------------------------------------------|
B|-----------------------------------------------------------------| Pre-Chorus Part 
G|---------------------------------7-7-7-7-7-7-7-7-7-7-7-7-7-7-7-7-|
D|-7-7-7-7-7-7-7-7-4-4-4-4-4-4-4-4-7-7-7-7-7-7-7-7-7-7-7-7-7-7-7-7-|
A|-7-7-7-7-7-7-7-7-4-4-4-4-4-4-4-4-5-5-5-5-5-5-5-5-5-5-5-5-5-5-5-5-|
E|-5-5-5-5-5-5-5-5-2-2-2-2-2-2-2-2---------------------------------|x1

e|-----------------------------------------------------------------|
B|-----------------------------------------------------------------| 
G|---------------------------------7-7-7-7-7-7-7-7-9-9-9-9-9-9-9-9-|
D|-7-7-7-7-7-7-7-7-4-4-4-4-4-4-4-4-7-7-7-7-7-7-7-7-9-9-9-9-9-9-9-9-|
A|-7-7-7-7-7-7-7-7-4-4-4-4-4-4-4-4-5-5-5-5-5-5-5-5-7-7-7-7-7-7-7-7-|
E|-5-5-5-5-5-5-5-5-2-2-2-2-2-2-2-2---------------------------------|x1

e|----------------------------------------------------------------------------------|
B|----------------------------------------------------------------------------------| Chorus
G|--------9-9-9--11-11-11--7-7-7------------------9-9-9-9-9-9-9-9-11-11-11-11-11-11-|
D|-7-7-7--9-9-9--11-11-11--7-7-7--7-7-7-7-7-7-7-7-9-9-9-9-9-9-9-9-11-11-11-11-11-11-|
A|-7-7-7--7-7-7---9--9--9--5-5-5--7-7-7-7-7-7-7-7-7-7-7-7-7-7-7-7--9--9--9--9--9--9-|
E|-5-5-5--------------------------5-5-5-5-5-5-5-5-----------------------------------|x1

e|---------------------|
B|---------------------|
G|-9-9-7-7-7-7-7-7-7-7-|
D|-9-9-7-7-7-7-7-7-7-7-|
A|-7-7-5-5-5-5-5-5-5-5-|
E|---------------------|x1


e|-----------------------------------------------------------------|
B|-----------------------------------------------------------------| Pre-Solo
G|-----------------------------------------------------------------|
D|-----------------------------------------------------------------|
A|-----4-5-7-5-4---------4-5-7-5-4---------4-5-7-5-4---------5-4---|
E|-0-7-----------7---0-7-----------7---0-7-----------7---0-7-----7-|x2

   Solo

e|-------------------------------------------------------------------------12-12-------------------|
B|-10-10-10-10-10-14-12-10-10-10-10-10-10-15-12-10-10-10-10-10-10-14-12-10-------15-15-14-14-12-12| 
G|-------------------------------------------------------------------------------------------------|
D|-------------------------------------------------------------------------------------------------|
A|-------------------------------------------------------------------------------------------------|
E|----------------------------------------------------------------------------------------------|x1

e|-----------------------------------------------------------------------------------------------|
B|-10-10-10-10-10-14-12-10-10-10-10-10-10-15-12-10-----9h10p9-9h10p9---12-10-9---9h10p9-9h10p9---| 
G|-------------------------------------------------9-9---------------9---------9---------------9-|
D|-----------------------------------------------------------------------------------------------|
A|-----------------------------------------------------------------------------------------------|
E|-----------------------------------------------------------------------------------------------|x1

e|-----------------------------------------------------------------|
B|-----------------------------------------------------------------| Pre-Chorus Part 
G|---------------------------------7-7-7-7-7-7-7-7-7-7-7-7-7-7-7-7-|
D|-7-7-7-7-7-7-7-7-4-4-4-4-4-4-4-4-7-7-7-7-7-7-7-7-7-7-7-7-7-7-7-7-|
A|-7-7-7-7-7-7-7-7-4-4-4-4-4-4-4-4-5-5-5-5-5-5-5-5-5-5-5-5-5-5-5-5-|
E|-5-5-5-5-5-5-5-5-2-2-2-2-2-2-2-2---------------------------------|x1

e|-----------------------------------------------------------------|
B|-----------------------------------------------------------------| 
G|---------------------------------7-7-7-7-7-7-7-7-9-9-9-9-9-9-9-9-|
D|-7-7-7-7-7-7-7-7-4-4-4-4-4-4-4-4-7-7-7-7-7-7-7-7-9-9-9-9-9-9-9-9-|
A|-7-7-7-7-7-7-7-7-4-4-4-4-4-4-4-4-5-5-5-5-5-5-5-5-7-7-7-7-7-7-7-7-|
E|-5-5-5-5-5-5-5-5-2-2-2-2-2-2-2-2---------------------------------|x1

e|----------------------------------------------------------------------------------|
B|----------------------------------------------------------------------------------| Ending
G|--------9-9-9--11-11-11--7-7-7------------------9-9-9-9-9-9-9-9-11-11-11-11-11-11-| Chorus
D|-7-7-7--9-9-9--11-11-11--7-7-7--7-7-7-7-7-7-7-7-9-9-9-9-9-9-9-9-11-11-11-11-11-11-|
A|-7-7-7--7-7-7---9--9--9--5-5-5--7-7-7-7-7-7-7-7-7-7-7-7-7-7-7-7--9--9--9--9--9--9-|
E|-5-5-5--------------------------5-5-5-5-5-5-5-5-----------------------------------|x1

e|---------------------|
B|---------------------|
G|-9-9-7-7-7-7-7-7-7-7-|
D|-9-9-7-7-7-7-7-7-7-7-|
A|-7-7-5-5-5-5-5-5-5-5-|
E|---------------------|x1

. = Palm Mute
/ = Slide Up
\ = Slide Down
H = Hammer On
P = Pull Off
~ = Let ring

A guy requested this tab so here it is. Hope you enjoy, have fun playing.
Problems or question? E-Mail    blink1-8-2@hotmail.co.uk   (:
Tap to rate this tab
# A B C D E F G H I J K L M N O P Q R S T U V W X Y Z