Song name
# A B C D E F G H I J K L M N O P Q R S T U V W X Y Z

Blink 182 - Peggy Sue tab

blink-182
Peggy Sue
Cheshire Cat 1994


0:00 - 0:08

e|-------------------------------------------------------------------------------------------|
B|-------------------------------------------------------------------------------------------| 
G|-6-6-6-6-9-6-6-6-6-6-6-6-6-6--6-6-6-6-9-6-6-6-6-6-6-6-6-6--7-7-7-7-7-7-7-7-7-7-7-7-7-7-7-7-|
D|-7-7-7-7-7-7-7-7-7-7-7-7-7-7--7-7-7-7-7-7-7-7-7-7-7-7-7-7--x-x-x-x-x-x-x-x-x-x-x-x-x-x-x-x-|
A|-----------------------------------------------------------5-5-5-5-5-5-5-5-5-5-5-5-5-5-5-5-|
E|-------------------------------------------------------------------------------------------|

0:09 - 0:15

e|----------------------------------------------------------------------------------------|
B|----------------------------------------------------------------------------------------| 
G|-6-6-6-6-9-6-6-6-6-6-6-6-6-6-9-9-9-9-9-9-9-9-7-7-7-7-7-7-7-7--6-6-6-6-9-6-6-6-6-6-6-6-6-|
D|-7-7-7-7-7-7-7-7-7-7-7-7-7-7-x-x-x-x-x-x-x-x-x-x-x-x-x-x-x-x--7-7-7-7-7-7-7-7-7-7-7-7-7-|
A|-----------------------------7-7-7-7-7-7-7-7-5-5-5-5-5-5-5-5----------------------------|
E|----------------------------------------------------------------------------------------|

0:15 - 0:32

e|----------------------------------------------------------|
B|----------------------------------------------------------| Verse
G|---------------------------------7--7-7-7-7-7-7-----------|
D|-7--7-7-7-7-7-7--4--4-4-4-4-4-4--7--7-7-7-7-7-7-2-2-4-4-2-|
A|-7--7-7-7-7-7-7--4--4-4-4-4-4-4--5--5-5-5-5-5-5-2-2-4-4-2-|
E|-5--5-5-5-5-5-5--2--2-2-2-2-2-2-----------------0-0-2-2-0-|
      . . . . . .     . . . . . .     . . . . . . 

"I know what it's like to be alone sitting in your room
 Listening to all those doubts that, your parents had to say to you
 As your head gets all cluttered inside, try to stay awake
 Everything they say are lies, that's all the shit that you ever had to take so"

0:32 - 0:36

e|-----------------------------------------------------------------|
B|-----------------------------------------------------------------| 
G|-7-7-7-7-7-7-7-7-7-7-7-7-7-7-7-7---------------------------------|
D|-7-7-7-7-7-7-7-7-7-7-7-7-7-7-7-7-7-7-7-7-7-7-7-7-7-7-7-7-7-7-7-7-|
A|-5-5-5-5-5-5-5-5-5-5-5-5-5-5-5-5-7-7-7-7-7-7-7-7-7-7-7-7-7-7-7-7-|
E|---------------------------------5-5-5-5-5-5-5-5-5-5-5-5-5-5-5-5-|
 "Hold in, all your agressions, because your"

0:37 - 0:41

e|-----------------------------------------------------------------|
B|-----------------------------------------------------------------| 
G|-7-7-7-7-7-7-7-7-7-7-7-7-7-7-7-7-----------------9-9-9-9-9-9-9-9-|
D|-7-7-7-7-7-7-7-7-7-7-7-7-7-7-7-7-7-7-7-7-7-7-7-7-9-9-9-9-9-9-9-9-|
A|-5-5-5-5-5-5-5-5-5-5-5-5-5-5-5-5-7-7-7-7-7-7-7-7-7-7-7-7-7-7-7-7-|
E|---------------------------------5-5-5-5-5-5-5-5-----------------|

"Grinding teeth on down to, the bottom of your chin it's not"

0:41 - 0:45

e|-----------------------------------------------------------------|
B|-----------------------------------------------------------------| 
G|-7-7-7-7-7-7-7-7-7-7-7-7-7-7-7-7---------------------------------|
D|-7-7-7-7-7-7-7-7-7-7-7-7-7-7-7-7-7-7-7-7-7-7-7-7-7-7-7-7-7-7-7-7-|
A|-5-5-5-5-5-5-5-5-5-5-5-5-5-5-5-5-7-7-7-7-7-7-7-7-7-7-7-7-7-7-7-7-|
E|---------------------------------5-5-5-5-5-5-5-5-5-5-5-5-5-5-5-5-|

"Easy; or so damn pleasing, to not laugh" 

0:46 - 0:50

e|-----------------------------------------------------------------|
B|-----------------------------------------------------------------| 
G|-7-7-7-7-7-7-7-7-7-7-7-7-7-7-7-7-----------------9-9-9-9-9-9-9-9-|
D|-7-7-7-7-7-7-7-7-7-7-7-7-7-7-7-7-7-7-7-7-7-7-7-7-9-9-9-9-9-9-9-9-|
A|-5-5-5-5-5-5-5-5-5-5-5-5-5-5-5-5-7-7-7-7-7-7-7-7-7-7-7-7-7-7-7-7-|
E|---------------------------------5-5-5-5-5-5-5-5-----------------|

"At, everything they say as, they tell you what to be you're not alone."

0:50 - 0:56

e|-------------------------------------------------------------------------------------------|
B|-------------------------------------------------------------------------------------------| 
G|-6-6-6-6-9-6-6-6-6-6-6-6-6-6--6-6-6-6-9-6-6-6-6-6-6-6-6-6--7-7-7-7-7-7-7-7-7-7-7-7-7-7-7-7-|
D|-7-7-7-7-7-7-7-7-7-7-7-7-7-7--7-7-7-7-7-7-7-7-7-7-7-7-7-7--x-x-x-x-x-x-x-x-x-x-x-x-x-x-x-x-|
A|-----------------------------------------------------------5-5-5-5-5-5-5-5-5-5-5-5-5-5-5-5-|
E|-------------------------------------------------------------------------------------------|

0:57 - 1:03

e|----------------------------------------------------------------------------------------|
B|----------------------------------------------------------------------------------------| 
G|-6-6-6-6-9-6-6-6-6-6-6-6-6-6-9-9-9-9-9-9-9-9-7-7-7-7-7-7-7-7--6-6-6-6-9-6-6-6-6-6-6-6-6-|
D|-7-7-7-7-7-7-7-7-7-7-7-7-7-7-x-x-x-x-x-x-x-x-x-x-x-x-x-x-x-x--7-7-7-7-7-7-7-7-7-7-7-7-7-|
A|-----------------------------7-7-7-7-7-7-7-7-5-5-5-5-5-5-5-5----------------------------|
E|----------------------------------------------------------------------------------------|

1:03 - 1:20

e|----------------------------------------------------------|
B|----------------------------------------------------------| Verse
G|---------------------------------7--7-7-7-7-7-7-----------|
D|-7--7-7-7-7-7-7--4--4-4-4-4-4-4--7--7-7-7-7-7-7-2-2-4-4-2-|
A|-7--7-7-7-7-7-7--4--4-4-4-4-4-4--5--5-5-5-5-5-5-2-2-4-4-2-|
E|-5--5-5-5-5-5-5--2--2-2-2-2-2-2-----------------0-0-2-2-0-|
      . . . . . .     . . . . . .     . . . . . . 

"I know what it's like to be denied everything you do
 It's not the same reason why that, makes you change the things that you once knew
 As your head gets all cluttered inside, get more than you can take
 Everything they say are lies, that's all the shit that you ever had to take so"

1:20 - 1:24

e|-----------------------------------------------------------------|
B|-----------------------------------------------------------------| 
G|-7-7-7-7-7-7-7-7-7-7-7-7-7-7-7-7---------------------------------|
D|-7-7-7-7-7-7-7-7-7-7-7-7-7-7-7-7-7-7-7-7-7-7-7-7-7-7-7-7-7-7-7-7-|
A|-5-5-5-5-5-5-5-5-5-5-5-5-5-5-5-5-7-7-7-7-7-7-7-7-7-7-7-7-7-7-7-7-|
E|---------------------------------5-5-5-5-5-5-5-5-5-5-5-5-5-5-5-5-|
 "Hold in, all your agressions, because your"

1:25 - 1:29

e|-----------------------------------------------------------------|
B|-----------------------------------------------------------------| 
G|-7-7-7-7-7-7-7-7-7-7-7-7-7-7-7-7-----------------9-9-9-9-9-9-9-9-|
D|-7-7-7-7-7-7-7-7-7-7-7-7-7-7-7-7-7-7-7-7-7-7-7-7-9-9-9-9-9-9-9-9-|
A|-5-5-5-5-5-5-5-5-5-5-5-5-5-5-5-5-7-7-7-7-7-7-7-7-7-7-7-7-7-7-7-7-|
E|---------------------------------5-5-5-5-5-5-5-5-----------------|

"Grinding teeth on down to, the bottom of your chin it's not"

1:29 - 1:33

e|-----------------------------------------------------------------|
B|-----------------------------------------------------------------| 
G|-7-7-7-7-7-7-7-7-7-7-7-7-7-7-7-7---------------------------------|
D|-7-7-7-7-7-7-7-7-7-7-7-7-7-7-7-7-7-7-7-7-7-7-7-7-7-7-7-7-7-7-7-7-|
A|-5-5-5-5-5-5-5-5-5-5-5-5-5-5-5-5-7-7-7-7-7-7-7-7-7-7-7-7-7-7-7-7-|
E|---------------------------------5-5-5-5-5-5-5-5-5-5-5-5-5-5-5-5-|

"Easy; or so damn pleasing, to not laugh" 

1:34 - 1:37

e|-----------------------------------------------------------------|
B|-----------------------------------------------------------------| 
G|-7-7-7-7-7-7-7-7-7-7-7-7-7-7-7-7-----------------9-9-9-9-9-9-9-9-|
D|-7-7-7-7-7-7-7-7-7-7-7-7-7-7-7-7-7-7-7-7-7-7-7-7-9-9-9-9-9-9-9-9-|
A|-5-5-5-5-5-5-5-5-5-5-5-5-5-5-5-5-7-7-7-7-7-7-7-7-7-7-7-7-7-7-7-7-|
E|---------------------------------5-5-5-5-5-5-5-5-----------------|

"At, everything they say as, they tell you what to be you're not"

1:38 - 1:45

e|-----|
B|-----|
G|-----|
D|-7~~-|
A|-7~~-|
E|-5~~-|

 "Alone."
 

 1:46 - 1:54 Bass Solo

"You say you want to take off your shoes as you
 Walk barefoot down the street
 Just to be the things that you can be
 Just live for"

1:54 - 1:55

e|-----------------|
B|-----------------| 
G|-6-6-6-6-6-6-6-6-|
D|-7-7-7-7-7-7-7-7-|
A|-----------------|
E|-----------------|
   . . . . . . . .

"One more week GO"

1:55 - 2:12

e|-----------------------------------------------|
B|-----------------------------------------------| Bridge
G|-6-6-7-7-9-6-6-7-7-9--9-9-9-9-6-7-7-7--7-7-7-7-|
D|-7-7-7-7-7-7-7-7-7-7--7-7-7-7-7-7-7-7--7-7-7-7-|
A|-----------------------------------------------|
E|-----------------------------------------------|

"You say you want to take off your shoes as you
 Walk barefoot down the street
 Just to be the things that you can be
 Just live for one more week so"


2:12 - 2:16

e|-----------------------------------------------------------------|
B|-----------------------------------------------------------------| 
G|-7-7-7-7-7-7-7-7-7-7-7-7-7-7-7-7---------------------------------|
D|-7-7-7-7-7-7-7-7-7-7-7-7-7-7-7-7-7-7-7-7-7-7-7-7-7-7-7-7-7-7-7-7-|
A|-5-5-5-5-5-5-5-5-5-5-5-5-5-5-5-5-7-7-7-7-7-7-7-7-7-7-7-7-7-7-7-7-|
E|---------------------------------5-5-5-5-5-5-5-5-5-5-5-5-5-5-5-5-|
 "Hold in, all your agressions, because your"

2:17 - 2:21

e|-----------------------------------------------------------------|
B|-----------------------------------------------------------------| 
G|-7-7-7-7-7-7-7-7-7-7-7-7-7-7-7-7-----------------9-9-9-9-9-9-9-9-|
D|-7-7-7-7-7-7-7-7-7-7-7-7-7-7-7-7-7-7-7-7-7-7-7-7-9-9-9-9-9-9-9-9-|
A|-5-5-5-5-5-5-5-5-5-5-5-5-5-5-5-5-7-7-7-7-7-7-7-7-7-7-7-7-7-7-7-7-|
E|---------------------------------5-5-5-5-5-5-5-5-----------------|

"Grinding teeth on down to, the bottom of your chin it's not"

2:21 - 2:25

e|-----------------------------------------------------------------|
B|-----------------------------------------------------------------| 
G|-7-7-7-7-7-7-7-7-7-7-7-7-7-7-7-7---------------------------------|
D|-7-7-7-7-7-7-7-7-7-7-7-7-7-7-7-7-7-7-7-7-7-7-7-7-7-7-7-7-7-7-7-7-|
A|-5-5-5-5-5-5-5-5-5-5-5-5-5-5-5-5-7-7-7-7-7-7-7-7-7-7-7-7-7-7-7-7-|
E|---------------------------------5-5-5-5-5-5-5-5-5-5-5-5-5-5-5-5-|

"Easy; or so damn pleasing, to not laugh" 

2:26 - 2:30

e|-----------------------------------------------------------------|
B|-----------------------------------------------------------------| 
G|-7-7-7-7-7-7-7-7-7-7-7-7-7-7-7-7-----------------9-9-9-9-9-9-9-9-|
D|-7-7-7-7-7-7-7-7-7-7-7-7-7-7-7-7-7-7-7-7-7-7-7-7-9-9-9-9-9-9-9-9-|
A|-5-5-5-5-5-5-5-5-5-5-5-5-5-5-5-5-7-7-7-7-7-7-7-7-7-7-7-7-7-7-7-7-|
E|---------------------------------5-5-5-5-5-5-5-5-----------------|

"At, everything they say as, they tell you what to be you're not"

2:30 - 2:35

e|-----|
B|-----|
G|-----|
D|-7~~-|
A|-7~~-|
E|-5~~-|

 "Alone."

. = Palm Mute
/ = Slide Up
\ = Slide Down
H = Hammer On
P = Pull Off
~ = Let ring

A guy requested this tab so here it is. Hope you enjoy, have fun playing.
Problems or question? E-Mail    blink1-8-2@hotmail.co.uk   (:
Tap to rate this tab
 
# A B C D E F G H I J K L M N O P Q R S T U V W X Y Z