Song name
# A B C D E F G H I J K L M N O P Q R S T U V W X Y Z

Blink 182 - Time To Break Up Acoustic tab

Hey, second tab on this site. I love this song, it's really simple but the power chords 
an acoustic combined with Tom's voice sound great. Hope you enjoy, rate/comment please.


Main riff (repeated several times throughout the song, on a second guitar):
|------------------------|
|----0----------0--------|
|-------2~~--------2~~---|
|-2----------2-----------|
|------------------------|
|------------------------|

Intro (constant eigth note strumming):
|------------|
|------------|
|--------7---|
|--7--4--7---|
|--7--4--5---|
|--5--2------|

Verse: (listen for rhythm)
|---------------|
|---------------|
|--------9--7---|
|--7--4--9--7---|
|--7--4--7--5---|
|--5--2---------|

Chorus: (listen for rhythm)
|---------------|
|---------------|
|-----9-----7---|
|--7--9--4--7---|
|--7--7--4--5---|
|--5-----2------|

Bridge:
|------0---------------0---------------0---------------0------------|
|--------------2---------------2---------------2---------------2----|
|----2---2---2---2---2---2---2---2---2---2---2---2---2---2---2---2--|
|----------------------------------0-------0-------0-------0--------|
|-------------------------------------------------------------------|
|--2-------2-------2-------2----------------------------------------|

|------0---------------0---------------------------------0--0-0--0--0--0----|
|--------------2---------------2-------2-----2-----2---2-2--2-2--2--2--2----|
|----2---2---2---2---2---2---2---2---2-----2-----2-------2--2-2--2--2--2----|
|----------------------------------0-----0-----0-----0---0--0-0--0--0--0----|
|--0-------0-------2-------2------------------------------------------------|
|---------------------------------------------------------------------------|

|----------------------------------|
|----------------------------------|
|-----7------------7--------9-7----|
|--4--7--7-7-7--4--7--7--7--9-7----|
|--4--5--7-7-7--4--5--7--7--7-5----|
|--2-----5-5-4--2-----5--5---------|

Song structure:
Main riff played over...
Intro
Verse
Intro
Verse
Chorus
Intro
Verse
Chorus
Bridge
Intro (w/main riff played over it)
end on an A power chord.

There you go.
Tap to rate this tab
 
# A B C D E F G H I J K L M N O P Q R S T U V W X Y Z