Song name
# A B C D E F G H I J K L M N O P Q R S T U V W X Y Z

Blink 182 - Mutt Acoustic tab

Artist : Blink 182
Song : Mutt (Acoustic)
Tuning : STANDARD EADGBE

NOTE: You'll have to work out the strumming pattern yourself! Please rate & comment.

Tabbed by Carmen McCoid
E-mail imaginarycarmen@gmail.com

Intro

-5-5-5-5-5-5h7---------------5-5-5-5-5-5h7---------------5-5-5-5-5-5h7-------|
-x-x-x-x-x-x-x-5-5-5-5-5-5-4-x-x-x-x-x-x-x-5-5-5-5-5-5-4-x-x-x-x-x-x-x-5-5-5-|
-7-7-7-7-7-7-7-7-7-7-7-7-7-7-7-7-7-7-7-7-7-7-7-7-7-7-7-7-7-7-7-7-7-7-7-7-7-7-|
-6-6-6-6-6-6-6-6-6-6-6-6-6-6-6-6-6-6-6-6-6-6-6-6-6-6-6-6-6-6-6-6-6-6-6-6-6-6-|
-----------------------------------------------------------------------------|
-----------------------------------------------------------------------------|

-------|
7-7-7--|
7-7-7--|
6-6-6--|
-------|
-------|


Verse
He pauses shaving and he tells himself that he is the bomb
She has her curlers set, her credit cards are paying the funds
He's not that old, I've been told, a strong sexual goal
He goes out everyday, she goes every way

Repeat 4x
-------------5-5-5-5-5-5----4-4-4-4-4-4--4-0-0-0-|
-------------7-7-7-7-7-7----2-2-2-2-2-2--2-2-2-2-|
-------------7-7-7-7-7-7----2-2-2-2-2-2--2-2-2-2-|
-------------------------------------------------|
-------------------------------------------------|
-------------------------------------------------|

Oh Yeah They Don't Even Care At All.....
-5-5-5-5-5-5-5-5-7-7-7-7-----5-5-5-5-5-----------|
-x-x-x-x-x-x-x-x-x-x-x-x-5-4-x-x-x-x-x-----------|
-7-7-7-7-7-7-7-7-7-7-7-7-7-7-7-7-7-7-7-----------|
-------------------------------------------------|
-------------------------------------------------|
-------------------------------------------------|

She's open, waiting for more
And I know he's only looking to score
And it is way too unhealthy, often they've typically
Been starved for attention before

-5-5-5-5-5-5-5-5-7-7-7-7-----5-5-5-5-5------------|
-x-x-x-x-x-x-x-x-x-x-x-x-5-4-x-x-x-x-x------------|
-7-7-7-7-7-7-7-7-7-7-7-7-7-7-7-7-7-7-7------------|
--------------------------------------------------|
--------------------------------------------------|
--------------------------------------------------|


-5-5-5-5-5-5h7---------------5-5-5-5-5-5h7---------------5-5-5-5-5-5h7-------|
-x-x-x-x-x-x-x-5-5-5-5-5-5-4-x-x-x-x-x-x-x-5-5-5-5-5-5-4-x-x-x-x-x-x-x-5-5-5-|
-7-7-7-7-7-7-7-7-7-7-7-7-7-7-7-7-7-7-7-7-7-7-7-7-7-7-7-7-7-7-7-7-7-7-7-7-7-7-|
-6-6-6-6-6-6-6-6-6-6-6-6-6-6-6-6-6-6-6-6-6-6-6-6-6-6-6-6-6-6-6-6-6-6-6-6-6-6-|
-----------------------------------------------------------------------------|
-----------------------------------------------------------------------------|

She smokes a dozen and he doesn't seem to notice the smell
He took the seat off his own bike, because the way that it felt
He wants to bone this, I know she is ready to blow
They go out every night, his pants are super tight

-------------5-5-5-5-5-5--4-4-4-4-4-4-4-4--0-0-0-|
-------------7-7-7-7-7-7--2-2-2-2-2-2-2-2--2-2-2-|
-------------7-7-7-7-7-7--2-2-2-2-2-2-2-2--2-2-2-|
-------------------------------------------------|
-------------------------------------------------|
-------------------------------------------------|

Oh Yeah They Don't Even Care At All.....
-5-5-5-5-5-5-5-5-7-7-7-7-----5-5-5-5-5-----------|
-x-x-x-x-x-x-x-x-x-x-x-x-5-4-x-x-x-x-x-----------|
-7-7-7-7-7-7-7-7-7-7-7-7-7-7-7-7-7-7-7-----------|
-------------------------------------------------|
-------------------------------------------------|
-------------------------------------------------|

She's open, waiting for more (she's open, waiting for more)
And I know he's only looking to score (he's only looking to score)
And it is way too unhealthy, often they've typically
Been starved for attention before

-5-5-5-5-5-5-5-5-7-7-7-7-----5-5-5-5-5------------|
-x-x-x-x-x-x-x-x-x-x-x-x-5-4-x-x-x-x-x------------|
-7-7-7-7-7-7-7-7-7-7-7-7-7-7-7-7-7-7-7------------|
--------------------------------------------------|
--------------------------------------------------|
--------------------------------------------------|


-5-5-5-x-x-x-7-7-7-x-x-x---------------------5-5-5-|
-7-7-7-x-x-x-9-9-9-x-x-x-5-5-5-x-x-4-4-4-x-x-7-7-7-|
-7-7-7-x-x-x-9-9-9-x-x-x-7-7-7-x-x-6-6-6-x-x-7-7-7-|
-------------------------7-7-7-x-x-6-6-6-x-x-------|
---------------------------------------------------|
---------------------------------------------------|


-5-5-5-5-5-5h7---------------5-5-5-5-5-5h7---------------5-5-5-5-5-5h7-------|
-x-x-x-x-x-x-x-5-5-5-5-5-5-4-x-x-x-x-x-x-x-5-5-5-5-5-5-4-x-x-x-x-x-x-x-5-5-5-|
-7-7-7-7-7-7-7-7-7-7-7-7-7-7-7-7-7-7-7-7-7-7-7-7-7-7-7-7-7-7-7-7-7-7-7-7-7-7-|
-6-6-6-6-6-6-6-6-6-6-6-6-6-6-6-6-6-6-6-6-6-6-6-6-6-6-6-6-6-6-6-6-6-6-6-6-6-6-|
-----------------------------------------------------------------------------|
-----------------------------------------------------------------------------|


-5-5-5-5-5-5-5-5-7-7-7-7-----5-5-5-5-5------------|
-x-x-x-x-x-x-x-x-x-x-x-x-5-4-x-x-x-x-x------------|
-7-7-7-7-7-7-7-7-7-7-7-7-7-7-7-7-7-7-7------------|
--------------------------------------------------|
--------------------------------------------------|
--------------------------------------------------|
Tap to rate this tab
 
# A B C D E F G H I J K L M N O P Q R S T U V W X Y Z