Song name
# A B C D E F G H I J K L M N O P Q R S T U V W X Y Z

Blink 182 - Mutt tab

Intro: ( Play Twice )  

   e|-----------------------------------------|  
   B|---2--2--2--2--2--2--2--2---------------|  
   G|--2--2--2--2--2--2--2--2----------------|  
   D|-2--2--2--2--0--0--0--0-----------------|  

   Verse:  
   |-PM-|  
   e|----------------------------------------------------------|  
   B|-------------------------------2------2-------------------|  
   G|-----2-----2-----2----2-4-------------------2-4-----2-4--|  
   D|---------------------------------------------------------- |  
   A|-0-0--0-0---0-0---0-0----0-0----0-0----2-2-----2-2------|  
   E|-0-0--0-0---0-0---0-0----2-2----2-2----0-0-----0-0------|  

   Chorus: ( She Wants To Blow... )  
   |---------Repeat Twice--------|  
   e|----------------------------------------------------------------------|  
   B|----------------------------------------------------------------------|  
   G|---------------------------1-1-1-1-7-7-7-7-7-7-7-7-7-7-7-7-9-9-9-9-|  
   D|-7-7-7-7-7-7-7-7-4-4-4-4-2-2-2-2-7-7-7-7-7-7-7-7-7-7-7-7-9-9-9-9-|  
   A|-7-7-7-7-7-7-7-7-4-4-4-4-2-2-2-2-5-5-5-5-5-5-5-5-5-5-5-5-7-7-7-7-|  
   E|-5-5-5-5-5-5-5-5-2-2-2-2--------------------------------------------|  

   Next Verse: ( Shes Open Waiting For More... )  

   e|-------------------------------------- |  
   B|-------------------------------------- |  
   G|-------------------------------------- |  
   D|-----2-4-2-----2-4-0-----4-----7--9- |  
   A|-0-0-------0-0-------2-2---2-5--7--- |  
   E|-------------------------------------- |  

   Ending:  
   |-Repeat Twice-|  
   e|-----------------------------------------|  
   B|-----------------------------------------|  
   G|---4-7-7-6-6----------------------------|  
   D|-7-4-7-7-6-6----------------------------|  
   A|-7-2-5-5-4-4----------------------------|  
   E|-5---------------------------------------|
Tap to rate this tab
# A B C D E F G H I J K L M N O P Q R S T U V W X Y Z