Song name
# A B C D E F G H I J K L M N O P Q R S T U V W X Y Z

Blink 182 - Man Overboard tab

this song is cool. i tabbed it myself. have fun with this.(this is 110% right!)
cool riff #1
------------------------------------
------------------------------------
------------------------------------ x6
------------------------------------
--0-2-3-2--2-3-2-0---0-2-3-2-2-3-2-0
-3-----------------0----------------

cool riff #2
------------------------------------
--------------------------
-------------------------
---------------------------
-5-5-----------------------
-----2-3-2/5--------------
------------------
Tap to rate this tab
# A B C D E F G H I J K L M N O P Q R S T U V W X Y Z