Song name
# A B C D E F G H I J K L M N O P Q R S T U V W X Y Z

Blink 182 - Man Overboard tab

this is my first tabbing of a song.this song is pretty easy.i am 100% sure it is 100% right, but im not sure about the beginning. ill send it in when i get it.use standard tuning for this(EADGBe/low to high).have fun!!!blink 182 kicks ass!!!

beginning
|------------------------------------|
|------------------------------------|
|------------------------------------|
|------------------------------------|
|------------------------------------|
|---5-3-2-3-5---5-3-2----------------|
|-3-----------3----------------------|


cool riff #1
|------------------------------------|
|------------------------------------|
|------------------------------------|
|------------------------------------|
|--0-2-3-2--0-3-2-0--0-2-3-2--0-3-2-0|
|-3-----------------0----------------|

cool riff #2
|------------------------------------|
|------------------------------------|
|------------------------------------| 
|-5-5--------------------------------|
|-----2-3-5-3-5-7-5-3----------------|
|------------------------------------|

verse
|------------------------------------|
|------------------------------------|
|---------77777777----------55555555-|(entire verse 
|55555555-77777777-22222222-55555555-| palm muted)
|55555555-55555555-00000000-33333333-|
|33333333----------00000000----------|

im too lazy to do the breakdown, but it aint too hard to do yourself.any questions or comments e-mail me at 
timmy_badinfluence@hotmail.com  stay sick and twisted...
Tap to rate this tab
# A B C D E F G H I J K L M N O P Q R S T U V W X Y Z