Song name
# A B C D E F G H I J K L M N O P Q R S T U V W X Y Z

Blink 182 - Whats My Age Again tab

Help us improve GuitareTab! Take a short survey!
I found this in on blink182.com I know its right

RIFF #1
"I Took Her out..."
---------------------------------------------------------------------------
-------------12--------------12----------------12--------------12----
--------12-------12-----12----12-------12------12------12----12
--10----------------------------------------------------------------------
-----------------------10-------------------------------------------------
----------------------------------------10----------------12------------
(repeat) begining riff

RIFF #2
"And That's about the time she walked away from me.."
---------------------------------------------------------------------------
---------------------------------------------------------------------------
-----------6---6--------8--8-------4---4---4--------------------------
---4------4---4--------6--6-------4---4---4--------------------------
---4------4---4--------6--6-------2---2---2--------------------------
---2----------------------------------------------------------------------
(repeat) main riff

RIFF #3
 "Later on, on the drive home...."
PALM MUTE RIFF
---------------------------------------------------------------------------
---------------------------------------------------------------------------
--4-4-4-4-----------6-6-6-6---8-8-8-8-----------------------------
--4-4-4-4---6-6----6-6-6-6---8-8-8-8-----------------------------
--2-2-2-2---6-6----4-4-4-4---6-6-6-6-----------------------------
---------------4-4--------------------------------------------------------
(REMEMBER TO PALM MUTE WHILE PLAYING THIS^)


RIFF #4
Solo riff
-----------------------------------------
-----------------------------------------
-----------------------------------------
------------8h9------------------------
----999--------------------------------
-----------------------------------------

RIFF #5
Solo Riff #2
-----------------------------------------------
-----------------------------------------------
--------------11------------------------------
-----8-------------8h9----------------------
--9----9--------------------------------------
------------------------------------------------

What's My Age again?

RIFF #1  8 times
RIFF #2  5 times
RIFF #3  8 times
RIFF #2  5 times
RIFF #4  4 times
RIFF #5  8 times
RIFF #2 10 times

If you've got somthing different than this, e-mail me at blink182mon@hotmail.com

                               BLINK 182 RULES!
Related for Whats My Age Again tab