Song name
# A B C D E F G H I J K L M N O P Q R S T U V W X Y Z

Blink 182 - The Fallen Interlude tab

Listen to the Song for the timing.

E|----17-----------------15/19-----------------|
B|---------------------------------------------|
G|---------------------------------------------|
D|---------------------------------------------|
A|---------------------------------------------|
E|---------------------------------------------|

E|-----------------------12--------------------|
B|----7h8p7------------------------------------|
G|---------------------------------------------|
D|---------------------------------------------|
A|---------------------------------------------|
E|---------------------------------------------|

E|---------------------------------------------|
B|----12---10---8/10----------7/8--------------|
G|---------------------------------------------|
D|---------------------------------------------|
A|---------------------------------------------|
E|---------------------------------------------|

E|---------------------------------------------|
B|----12---10---8/10---------------------------|
G|---------------------------------------------|
D|---------------------------------------------|
A|---------------------------------------------|
E|---------------------------------------------|

E|----17---15---14/10--------------------------|
B|----------------------------10/12------------|
G|---------------------------------------------|
D|---------------------------------------------|
A|---------------------------------------------|
E|---------------------------------------------|

E|----17---15---14/10--------------------------|
B|----------------------------10/12------------|
G|---------------------------------------------|
D|---------------------------------------------|
A|---------------------------------------------|
E|---------------------------------------------|

E|----19---------------------------------------|
B|---------------------------------------------|
G|---------------------------------------------|
D|---------------------------------------------|
A|---------------------------------------------|
E|---------------------------------------------|
Tap to rate this tab
 
# A B C D E F G H I J K L M N O P Q R S T U V W X Y Z