Song name
# A B C D E F G H I J K L M N O P Q R S T U V W X Y Z

Blink 182 - Dammit Acoustic chords

Highlighted       Show chord diagrams
Intro:
e-------------------------------------------|
B-------------------------------------------|
G-------------------------------------------|
D-------0-0-2-----0-0-2-----0-0-2-----2-2-0-|    x2
A---3-3-----------------0-0-----------------|
E-------------3-3-----------------1-1-------|

Verse 1:
C            G          A              F
It's alright to tell me what you think about me
C           G        A          F
I won't try to argue or hold it against you
C           G              A             F
I know that you're leavin' you must have your reasons
C          G          A             F
The season is calling your pictures are falling down

e-------------------------------------------|
B-------------------------------------------|
G-------------------------------------------|
D-------0-0-2-----0-0-2-----0-0-2-----2-2-0-|    x2
A---3-3-----------------0-0-----------------|
E-------------3-3-----------------1-1-------|

Verse 2:
The steps that I retrace The sad look on your face
The timing and structure Did you hear You fucked her
A day late A buck short I'm writing the report
I'm losing and failing When I move I'm flailing now

Chorus:
C                        G                  A
And it's happened once again I'll turn to a friend
                  F                           C
Someone that understands Sticks to the master plan
                G                               A
But everybody's gone And I've been here for too long
                   F
To face this on my own Well I guess this is growing up

e-------------------------------------------|
B-------------------------------------------|
G-------------------------------------------|
D-------0-0-2-----0-0-2-----0-0-2-----2-2-0-|    x2
A---3-3-----------------0-0-----------------|
E-------------3-3-----------------1-1-------|

Verse 3:
And maybe I'll see you at a movie Sneak preview
You'll show up and walk by on the arm of that guy
And I'll smile and you'll wave We'll pretend it's ok
This charade it won't last When he's gone I won't come back

Chorus:
C                        G                  A
And it'll happen once again you'll turn to a friend
                  F                           C
Someone that understands Sticks to the master plan
                G                               A
But everybody's gone And you've been here for too long
                   F
To face this on your own Well I guess this is growing up

Bridge:
e------------------------------------------|
B------------------------------------------|
G------------------------------------------|
D---2--------0-2------2--------0-2---0-2---|   x2
A-----3----------3------3----------3-----3-|
E-------3-----------------3----------------|

C  G  A  F
C  G  A  F
C (hold out C)
Tap to rate this tab
# A B C D E F G H I J K L M N O P Q R S T U V W X Y Z