Song name
# A B C D E F G H I J K L M N O P Q R S T U V W X Y Z

Blink 182 - Grandpa Song tab

Help us improve GuitareTab! Take a short survey!
[Verse]
-2------0------2------0--------------0------------------------
-3---3-----3---3----3---3---3-----3------2-----2--3-----------
----------------------------0--0---------2---2----------------
-0-------------0----------------------------------------------
-----------------------------------------0--------------------
----------------------------3---------------------------------
[Chorus]
--------------------------------------------------------
--3-----3----3-----3-------3-----3----3----3------------
--0--0----0----0-----0-----2--2----2----2----2----------
--------------------------------------------------------Play 3x  
---------------------------0----------------------------End with:
--3-----------------------------------------------------
[Chorus end]
---------------------------------
--2-----2----2----2-------2------
--2--2----2----2----2-----2------
---------------------------------
--0-----------------------0------
---------------------------------

[comments]
*Play the verse starting in the shape of an open D chord.  Go from there.
*Don’t use a pick, just finger-pick, use index and middle for the jumping notes.
*Then when it is time play the chorus, play it 3x and then play the chorus End 1ce.

[E-mail me at StinkyApe@aol.com or Mexilope@aol.com, check out one of my band’s.]


VIVIVIVIVIVIVIVIVIVIVIVIVIVIVI
||  TABBED BY RON GUGLIE.   ||
VIVIVIVIVIVIVIVIVIVIVIVIVIVIVI
Related for Grandpa Song tab