Song name
# A B C D E F G H I J K L M N O P Q R S T U V W X Y Z

Blink 182 - Whats My Age Again tab

There are other versions of this song on the net, but I assure you,
this is the real way to play it, dammit!
(standard tuning)

Intro/verse1:(clean)
e|------7---------7---------7---------7----|
b|----8---8-----8---8-----8---8-----8---8--|
g|-----------------------------------------|
D|-10------------------0-------------------|
A|-----------10------------------7---------|
E|-----------------------------------------|

chorus:(dist.)
e|-----------------------|
b|-----------------------|
g|----6-6-8-8------------|
D|-4--6-6-8-8-9-9-9-9-9--|
A|-4--4-4-6-6-9-9-9-9-9--|
E|-2----------7-7-7-7-7--|

verse2:(dist.)
PM.-------------------------------|
e|----------------------------------|
b|----------------------------------|
g|-4-4-4-4---------6-6-6-6-8-8-8-8--|
D|-4-4-4-4-4-4-4-4-6-6-6-6-8-8-8-8--|
A|-2-2-2-2-4-4-4-4-4-4-4-4-6-6-6-6--|
E|---------2-2-2-2------------------|

Interlude:(clean)
e|---6------6------6------6----|------------------------------------------|
b|-----7------7------7------7--|------------------------------------------|
g|-6------6------6------6------|---------3---------3---------3---------3--|
D|-----------------------------|-4-4-4-6---4-4-4-6---4-4-4-6---4-4-4-6----|
A|-----------------------------|------------------------------------------|
E|-----------------------------|------------------------------------------|

Interlude continued:
(play 8 times w\ flanger, clean)
e|-------2-----|
b|-------------|
g|---3-------3-|
D|-4---4---4---|
A|-------------|
E|-------------|
Tap to rate this tab
 
# A B C D E F G H I J K L M N O P Q R S T U V W X Y Z