Song name
# A B C D E F G H I J K L M N O P Q R S T U V W X Y Z

Blink 182 - First Date tab

Song:First Date
Author: Blink 182
Album:Take Off Your Pants And Jacket
Tabbed By: Andres Lazo
E-mail:andrulazo@hotmail.com


This Song Itself Is Very Easy Here It Is:

INTRO
E-0---------------------------0----------------------------------
B---1---1-----3---1---1-------1---1-----3-1---0--0--1----- X2
G-----0---0----------0---0-------0---0--------0---------------
D------------------------------------------------------------------
A------------------------------------------------------------------
E------------------------------------------------------------------

When Tom Starts Singing The Bass comes first then he palmutes This:
(when He Plays It Live He Does It  Doing "C5" and not this)
RIFF 1
E-----------------------------------------------------------
B-----------------------------------------------------------
G---5-5------5--5------5--5-------5---5----------------
D-5-------5----------5----------5------------------------
A-----------------------------------------------------------
E----------------------------------------------------------

Then He Sing "Lets Go, Don't Wait..."
RIFF 2
E----------------------------------------------------------------------------
B-----------------------------------------------------------------------------
G-555--555---222222-------------------------------------------------X2
D-555--555---222222------33-55------------------------------------
A-333--222---000000-------33-55------------------------------------
E----------------------------------11-33------------------------------------

CHORUS
"Forever And Ever Let's Make This Last Forever"
E-------------------------------------------------------------------------------
B--------------------------------------------------------------------------------
G-5555----5555---2222--------------------------------------------------
D-5555----5555---2222-------33-55------------------------------------X2
A-3333----2222----0000------33-55------------------------------------
E------------------------------------11-33------------------------------------

Next Is The INTRO
Followed By RIFF 1
RIFF 2
CHORUS

Next Is what everybody Waits In The Song:
THE SOLO: (Palm Muted)

E----------------------------------------------------------
B----------------------------------------------------------
G--5555555--------------------------------------------
D--5555555--5555555--3333333--5555555- X2
A--3333333--5555555--3333333--5555555-
E----------------3333333--1111111--3333333-

Then The Other Part Of The Solo ( X=MUTED) ( /=SLIDE)


E----------------------------------------------------------------------------------
B----------------------------------------------------------------------------------
G-5555555  / 9999  / 555 / 10 10 10 10 / 555 / 7777 / 5555555
D- x x x x x x  /  x xx x  / x x x /  x    x    x     x  / x x x / x x x x / xxxxxxxxx
A -3333333 /  7777 / 333 /  8    8    8   8  / 333 / 5555 / 3333333
E---------------------------------------------------------------------------------

RIFF 2   x2
CHORUS  x2
INTRO SINGED  x2

CMMENTS, WANT ME TO TAB ANOTHR SONG , CORRECTONS andrulazo@hotmail.com
Tap to rate this tab
# A B C D E F G H I J K L M N O P Q R S T U V W X Y Z