Song name
# A B C D E F G H I J K L M N O P Q R S T U V W X Y Z

Blink 182 - Voyeur tab

Tabbed By: James Pitseolak
Email: homerskid17@hotmail.com

Ok, so this is tab is from The Voyeur song Blink-182 (only Blink back then)
recorded for the Short Bus sessions that is totally different from the one
on Dude Ranch and the only thing in common is the title. I tabbed this by
ear, and it's my first tab so here goes:

Intro Part 1 (Clean)(play softly)

e|---------------------------------------------------------------------------|
B|---------------------------------------------------------------------------|
G|---------------------------------------------------------------------------|
D|---------------------------------------------------------------------------|
A|----5-----5-----5-----5----5--------5-----5-----5-----5--------------------|
E|--2-----2-----2----2----2----2---3-----3-----3-----3-----3-----------------|

e|---------------------------------------------------------------------------|
B|---------------------------------------------------------------------------|
G|---------------------------------------------------------------------------|
D|-------------------------------------5-4-2-0---------2-4-5-0---------------|
A|------5---7-5---5-----5---7-5----5--------------5--------------------------|
E|--5-5---5-----5---5-5---5------3---3---------3----3------------------------|

e|---------------------------------------------------------------------------|
B|---------------------------------------------------------------------------|
G|---------------------------------------------------------------------------|
D|---------------------------------------------------------------------------|
A|----5-----5-----5-----5----5--------5-----5-----5-----5--------------------|
E|--2-----2-----2----2----2----2---3-----3-----3-----3-----3-----------------|

e|---------------------------------------------------------------------------|
B|---------------------------------------------------------------------------|
G|---------------------------------------------------------------------------|
D|-------------------------------------5-4-2-0~~-----------------------------|
A|------5---7-5---5-----5---7-5----5-----------------------------------------|
E|--5-5---5-----5---5-5---5------3---3---------------------------------------|


Intro Part 2 (Distorted)

e|------------------------------------------------------------------------|x2
B|------------------------------------------------13----------------------|
G|--12-11--------12-11--------12-11------------------13-------------------|
D|---x--x--7-7-7--x--x--5-5-5--x--x--7-7-7--9-9-9-------------------------|
A|--10--9--7-7-7-10--9--5-5-5-10--9--7-7-7--9-9-9-------------------------|
E|---------5-5-5--------3-3-3--------5-5-5--7-7-7-------------------------|

Verse



e|---------------------------------------------------------------------------|
B|---------------------------------------------------------------------------|
G|-7-xxx-7---------7-xxx-7---------7-xxx-7---------7-xxx-7-------------------|
D|-7-xxx-7--5-5-5--7-xxx-7--5-5-5--7-xxx-7--5-5-5--7-xxx-7--5-5-5------------|
A|-5-xxx-5--5-5-5--5-xxx-5--5-5-5--5-xxx-5--5-5-5--5-xxx-5--5-5-5------------|
E|----------3-3-3-----------3-3-3-----------3-3-3-----------3-3-3------------|


Chorus

e|--------------------------------------------------------------------------|
B|--------------------------------------------------------------------------|
G|--------------------------------------------------------------------------|
D|-7-7-7--9-9-9--5-5-5--7-7-7--7-7-7--9-9-9----(pickscrape)-----------------|
A|-7-7-7--9-9-9--5-5-5--7-7-7--7-7-7--9-9-9----(pickscrape)-----------------|
E|-5-5-5--7-7-7--3-3-3--5-5-5--5-5-5--7-7-7----(pickscrape)-----------------|

e|---------------------------------------------------------------------------|
B|---------------------------------------------------------------------------|
G|---------------------------------------------------------------------------|
D|-7-7-7--9-9-9--5-5-5--7-7-7--7-7-7--9-9-9---5-*---7-7-7--------------------|
A|-7-7-7--9-9-9--5-5-5--7-7-7--7-7-7--9-9-9---5-*---7-7-7--------------------|
E|-5-5-5--7-7-7--3-3-3--5-5-5--5-5-5--7-7-7---3-*---5-5-5|

                                                         * (Stop chord dead)
Repeat Intro Part 2:

e|------------------------------------------------------------------------|x2
B|------------------------------------------------13----------------------|
G|--12-11--------12-11--------12-11------------------13-------------------|
D|---x--x--7-7-7--x--x--5-5-5--x--x--7-7-7--9-9-9-------------------------|
A|--10--9--7-7-7-10--9--5-5-5-10--9--7-7-7--9-9-9-------------------------|
E|---------5-5-5--------3-3-3--------5-5-5--7-7-7-------------------------|

Verse

e|---------------------------------------------------------------------------|
B|---------------------------------------------------------------------------|
G|-7-xxx-7---------7-xxx-7---------7-xxx-7---------7-xxx-7-------------------|
D|-7-xxx-7--5-5-5--7-xxx-7--5-5-5--7-xxx-7--5-5-5--7-xxx-7--5-5-5------------|
A|-5-xxx-5--5-5-5--5-xxx-5--5-5-5--5-xxx-5--5-5-5--5-xxx-5--5-5-5------------|
E|----------3-3-3-----------3-3-3-----------3-3-3-----------3-3-3------------|


Chorus

e|--------------------------------------------------------------------------|
B|--------------------------------------------------------------------------|
G|--------------------------------------------------------------------------|
D|-7-7-7--9-9-9--5-5-5--7-7-7--7-7-7--9-9-9----(pickscrape)-----------------|
A|-7-7-7--9-9-9--5-5-5--7-7-7--7-7-7--9-9-9----(pickscrape)-----------------|
E|-5-5-5--7-7-7--3-3-3--5-5-5--5-5-5--7-7-7----(pickscrape)-----------------|

e|---------------------------------------------------------------------------|
B|---------------------------------------------------------------------------|
G|---------------------------------------------------------------------------|
D|-7-7-7--9-9-9--5-5-5--7-7-7--7-7-7--9-9-9---5-*---7-7-7--------------------|
A|-7-7-7--9-9-9--5-5-5--7-7-7--7-7-7--9-9-9---5-*---7-7-7--------------------|
E|-5-5-5--7-7-7--3-3-3--5-5-5--5-5-5--7-7-7---3-*---5-5-5--------------------|

                                              * (stop chord dead)
Outro:

e|----------------------------------------------------------------------|
B|----------------------------------------------------------------------|
G|--12-11--------12-11--------12-11----------------7-~------------------|
D|---x--x--7-7-7--x--x--7-7-7--x--x--5-5-5--9-h-7--7-~------------------|
A|--10--9--7-7-7-10--9--7-7-7-10--9--5-5-5--9-h-7--5-~------------------|
E|---------5-5-5--------5-5-5--------3-3-3--7-h-5-----------------------|

~ let ring
x harmonics
h hold
* stop chord dead (as mentioned above)
 
 
           There you go, Please rate and Thanks...
Tap to rate this tab
# A B C D E F G H I J K L M N O P Q R S T U V W X Y Z