Song name
# A B C D E F G H I J K L M N O P Q R S T U V W X Y Z

Blink 182 - Stay Together For The Kids tab

Author/Artist: Blink 182
Title: Stay Together For The Kids
Album: Take off your pants and jacket
Transcribed by: Colin Kemege
Email: socksandspoons@hotmail.com

NOTE:The Bridge is from them live in philidelphia (from blink182.com), and the Variation is from when they played live on Jay Leno.

Main Riff
-|-----------------------------------------------------------------------------    
-|-----------------------------------------------------------------------------
-|-----------------------------------------------------------------------------
-|---0---7-0---4-0---0---7-0---4-0---0----4-0---5-0---2-----4-5-4-2-0----------
-|-5---5-----5-----4---4-----4-----2----2-----2-----0---0----------------------  x2
-|-----------------------------------------------------------------------------                                                                              
Verse
-|-----------------------------------------------------------------------------
-|-----------------------------------------------------------------------------
-|----7----7----7----7-----7----7----7-----7-----------------------------------
-|----7----7----7----7-----7----7----7-----7-----------------------------------
-|55----55---55---55-----------------------------------------------------------
-|----------------------77---77---77----77-------------------------------------
                                                                              

-|-----------------------------------------------------------------------------
-|-----------------------------------------------------------------------------
-|----7----7----7----7----9----9----6-----7------------------------------------
-|----7----7----7----7----7----7----7-----7------------------------------------
-|-00---00---00---00---00---00---00---000--------------------------------------
-|-----------------------------------------------------------------------------  x2

Chorus
-|-----------------------------------------------------------------------------
-|-----------------------------------------------------------------------------
-|-----------------------------------------------------------------------------  
-|-555555555555555------5555555555555555---------------------------------------
-|-555555555555555------5555555555555555---------------------------------------
-|-333333333333333-0----2222222222222222-0-------------------------------------  x4

end on:                                                          
-|---|-------------------------------------------------------------------------
-|---|-------------------------------------------------------------------------
-|---|-------------------------------------------------------------------------
-|-5-|-------------------------------------------------------------------------
-|-5-|-------------------------------------------------------------------------
-|-3-|-------------------------------------------------------------------------


                                                                              
Bridge  
* = distortion on
OK, This is the way they play it live, see the top for more details.

-|-----------------------------------------------------------------------------
-|-------7------------9--7-----******------------------------------------------
-|7-7-9--7--7--9--7-7-9--7--7--999999------------------------------------------
-|7-7-9--7--7--7--7-7-9--7--7--777777------------------------------------------
-|5-5-7--5--5--7--5-5-7--5--5--777777------------------------------------------
-|-----------------------------------------------------------------------------

Variation:
-|-----------------------------------------|------|
-|-----------------------------------------|------|
-|-----------------------------------------|--9---|  
-|-555555555555555------5555555555555555---|--7---|
-|-555555555555555------5555555555555555---|--0---|
-|-333333333333333-0----2222222222222222-0-|------| 
                                             ^ And occasionaly he plays this (live)
go back and play chorus

Order:
Main Riff
Verse
Chorus
Main Riff
Verse
Chorus
Bridge
Variation
Chorus
Tap to rate this tab
# A B C D E F G H I J K L M N O P Q R S T U V W X Y Z