Song name
# A B C D E F G H I J K L M N O P Q R S T U V W X Y Z

Blink 182 - Enthused tab

Artist: Blink 182
Song: enthused
Album: Dude Ranch 
Guitarist: Tom DeLonge
Tabbed By: Sam Shwalbe

order
-------------------     all of this is correct
intro
pre verse part 1 x2
pre verse part 2 x2
verse 1 x6
interlude part 1 x2
interlude part 2
verse 2
outro




(intro/outro)

|-------------------------------------------------  
|-------------------------------------------------
|-77777-------------------------------------------  
|-77777--------------------77777------------------
|-55555----5-4-0-5-4-0h2---77777-5-4-0-5-4-0h2----
|--------------------------55555------------------

|-----------------------------------
|-----------------------------------
|-----------------------------------
|--9999--3333--5555-----------------
|--9999--5555--5555--5-4-0-5-4-0h2--
|--7777--5555--3333-----------------


|----------------------------------------------------------------
|---------------------------------------------------------------- 
|--77777----------------99999------------------------------------
|--77777-5-4-0-5-4-0h2--99999-5-4-0-5-4-0h2-----9999--3333--5555-
|--55555----------------77777-------------------9999--5555--5555- 
|-----------------------------------------------7777--5555--3333-

(pre verse part 1)
|---------------------------------------------------------------
|---------------------------------------------------------------
|--77777777--12-11-9---77777777--12-11-99999999--44-77777-99999-
|--xxxxxxxx---x--x-x---xxxxxxxx---x--x-xxxxxxxx--xx-xxxxx-xxxxx-  x2
|--55555555--10--9-7---55555555--10--9-77777777--66-55555-77777-
|---------------------------------------------------------------

(pre verse part 2)
|---------------------------------------------------
|---------------------------------------------------
|---9---9-8-9-----9---9-8----9---9-8-9-----11-11-8--
|----------------9---9------7---7---------9---9-----  x2
|--7---7--------------------------------------------
|---------------------------------------------------
pm ..  .. . .    ..  .. .   ..  .. . .    ..  ..  .

(verse 1)
|------------------------------------------
|------------------------------------------
|--77777777--77777777--77777777--99999999--
|--77777777--77777777--55555555--77777777--  x6
|--55555555--77777777--55555555--77777777--
|------------------------------------------


(interlude part 1)
|----------------------------------
|----------------------------------
|-7777777777--9--7777--------------
|-xxxxxxxxxx--x--xxxx--7--33333----  x2
|-5555555555--7--5555--x--xxxxx----
|----------------------5--55555----


(interlude part 2)
|------------------------------------------
|------------------------------------------
|--9--7777--9--7777--9--777--9--12121212---
|--x--xxxx--x--xxxx--x--xxx--x---x-x-x-x---
|--7--5555--7--5555--7--555--7--10101010---
|------------------------------------------


|---------------------------------------
|---------------------------------------
|--9--7777--9--7777--9--777-------------
|--x--xxxx--x--xxxx--x--xxx--7--33333---
|--7--5555--7--5555--7--555--x--xxxxx---
|----------------------------5--55555---


(verse 2)

|----------------------------------------------------------
|----------------------------------------------------------
|--77777------------------------77777----------------------
|--77777--99999--77777--55555---77777--99999--77777--55555-
|--55555--99999--77777--55555---55555--99999--77777--55555-
|---------77777--55555--33333----------77777--55555--33333-
                                            pm.....  .....

|------------------------------------------------------
|------------------------------------------------------
|--77777------------------77777------------------------
|--77777--99999--7--------77777--99999--77777--55555---
|--55555--99999--7--------55555--99999--77777--55555---
|---------77777--5---------------77777--55555--33333---


          |------|
          |------|
          |--7---|
end on    |--7---|
          |--5---|
          |------|
  

Lyrics
----------------------
am I strung out,crazy or not allowed 
to be the one who gets stupid over you
lazy(echo),laidback(echo),maybe you're just on crack 
why am I the one who gets fucked up and confused
GO!

she doesn't care at all 
she doesn't care at all 
she doesn't care 'bout those times we never shared at all

if I were the last of the few who always asked 
would you still be the same person that I knew
and if its for me another boring story 
I swear i'll act enthused

  
Tap to rate this tab
# A B C D E F G H I J K L M N O P Q R S T U V W X Y Z