Song name
# A B C D E F G H I J K L M N O P Q R S T U V W X Y Z

Blink 182 - Shut Up tab

-------------------------------------------------------------------------------
			     Shut Up - Blink 182
-------------------------------------------------------------------------------
Tabbed by:
Email:

Tuning:

Intro pt. 1
e|-------------|
B|-------------|
G|-------------|
D|--77777777---|
A|-------------|
E|-------------|

Main riff
e|-------------------------------------------------------------------------|
B|-------------------------------------------------------------------------|
G|------6----------6---------6---------6-----------------------------------|
D|----7---7------7---7-----7---7-----7---7---------------------------------|
A|--0----------0---------4---------5---------------------------------------|
E|-------------------------------------------------------------------------|

Verse 1
e|-------------------------------------------------------------------------|
G|-------------------------------------------------------------------------|
D|-------------------------------------------------------------------------|
A|--7~---------------------------------------------------------------------|
B|--7~---------------------------------------------------------------------|
E|--5~---------------------------------------------------------------------|

Chorus
e|-------------------------------------------------------------------------|
B|-------------------------------------------------------------------------|
G|-----------------1414141414------------------1414141414------------------|
D|--33333--22222---xxxxxxxxxx---33333--22222---xxxxxxxxxx------------------|
A|--33333--22222---1212121212---33333--22222---1212121212------------------|
E|--11111--00000----------------11111--00000-------------------------------|

e|-------------------------------------------------------------------------|
B|-------------------------------------------------------------------------|
G|------------------------44444444-----------------------------------------|
D|--77777777---33333333---44444444---33333---------------------------------|
A|--77777777---xxxxxxxx---22222222---xxxxx---------------------------------|
E|--55555555---11111111--------------11111---------------------------------|

verse 2
e|-------------------------------------------------------------------------|
B|-------------------------------------------------------------------------|
G|--22222222-66666666-77777777---------------------------------------------|
D|--22222222-66666666-77777777---------------------------------------------|
A|--00000000-44444444-55555555---------------------------------------------|
E|-------------------------------------------------------------------------|

Solo (clean)
e|-------------------------------------------------------------------------|
B|-------------------------------------------------------------------------|
G|--55555555-6666-2222-----------------------------------------------------|
D|--33333333-4444-0000-----------------------------------------------------|
A|-------------------------------------------------------------------------|
E|-------------------------------------------------------------------------|

End riff
e|-------------------------------------------------------------------------|
B|-------------------------------------------------------------------------|
G|--9999999999999999-77777777-55555555-------------------------------------|
D|--xxxxxxxxxxxxxxxx-xxxxxxxx-xxxxxxxx-------------------------------------|
A|--7777777777777777-55555555-33333333-------------------------------------|
E|-------------------------------------------------------------------------|

e|-------------------------------------------------------------------------|
B|-------------------------------------------------------------------------|
G|--1111111111111111-77777777-55555555-------------------------------------|
D|--xxxxxxxxxxxxxxxx-xxxxxxxx-xxxxxxxx-------------------------------------|
A|--9999999999999999-55555555-33333333-------------------------------------|
E|-------------------------------------------------------------------------|

e|-------------------------------------------------------------------------|
B|-------------------------------------------------------------------------|
G|--9999999999999999-77777777-55555555-------------------------------------|
D|--xxxxxxxxxxxxxxxx-xxxxxxxx-xxxxxxxx-------------------------------------|
A|--7777777777777777-55555555-33333333-------------------------------------|
E|-------------------------------------------------------------------------|

e|-------------------------------------------------------------------------|
B|-------------------------------------------------------------------------|
G|--9999999999999999-77777777-11111111-------------------------------------|
D|--xxxxxxxxxxxxxxxx-xxxxxxxx-xxxxxxxx-------------------------------------|
A|--7777777777777777-55555555-99999999-------------------------------------|
E|-------------------------------------------------------------------------|

End on
e|-------------|
B|-------------|
G|-------------|
D|--7~---------|
A|--7~---------|
E|--5~---------|


Intro x1
Main riff x4
Verse 1 X1 
Main riff x3(1st time play clean)
Verse 1 x1
Chorus x1
Verse 2 x4
Chorus x1
Solo x6
end riff x1
Chorus x1
Main riff x4
End x1

| /  slide up
| \  slide down
| h  hammer-on
| p  pull-off
| ~  vibrato
| +  harmonic
| x  Mute note
===============================================================================
Tap to rate this tab
# A B C D E F G H I J K L M N O P Q R S T U V W X Y Z