Song name
# A B C D E F G H I J K L M N O P Q R S T U V W X Y Z

Blink 182 - Give Me One Good Reason tab

E---------------------------------------------------------------------------|
B---------------------------------------------------------------------------|
G---------------------------------------------------------------------------|
D---6--6--------------X2----------------------------------------------------|
A--7--7-7--9-7-9-7-9---|----11-7-11-7-11--7-7-7-7-7---11-7-11-7-11----------|
E-7--7----7---7---7----|---9----9----9---5---5---5---9----9----9------------|
NEXT PART COMES AS SOON AS THE OTHERS IF U LISTEN TO THE SONG U'LL UNDRSTND
E----------|
B----------|
G----------|
D------6666|
A--9-7-----|
E-7---7----|
PM     ....|

hm, btw I can give u (one good reason lol) the chorous :)
Check out the other guy's stuff n connect it with this things,
couse, I promes this is the real intro, pre chorous n chorous ;P

PRE CHOROUS
E--------------------------------| Don't worry my friend, this is 100%
B--------------------------------| correct, I haven't missed any, I have
G--------------------------------| checkt it like idk, mayb like 50 times.
D-22222-6----------2222-6--------| N there is a hold up the second time,
A-22222---0006h77--2222---0006h77| listen to the song :P
E-00000------------0000----------|
PM        ...             ...    |

CHOROUS
E------------------------------------------------------------------|
B------------------------------------------------------------------|
G------------------------------------------------------------------|
D-22222222666666669999999999999999-22222222666666669999999977777777|
A-22222222666666669999999999999999-22222222666666669999999977777777|
E-00000000444444447777777777777777-00000000444444447777777755555555|

 And here it comes, the lyrics :)

 Mom and dad they quite don't understand it
 All the kids they laugh-as-if they planned it
 Why do girls wanna piers there nose?
 And walk around in torn pantyhose oh yeah!
 PRE CHOROUS 1 time :P
 I like the once who say they listen to the punk rock
 I like the kids who fight against how they were brought up
 They hate the trends and think it's fuck to care
 It's cool when they piss people off with what they wear oh yeah!
 PRE CHOROUS 1 time :P
 CHOROUS
 Give me, one good, reason!
 Why we, need to, be like them!
 Kids will, have fun and offend!
 They don't, want to and don't fit-in!
 INTRO
 PRE CHOROUS 1 time :P
 Hate the jocks the preps the hippie fuckin' scumbags
 Heavy metlars with their aweful pussy hair bands
 Counting seconds until we can get away
 Dithing school almost every single day oh yeah!
 PRE CHOROUS 2 times :P
 CHOROUS
 Give me, one good, reason!
 Why we, need to, be like them!
 Kids will, have fun and offend!
 They don't, want to and don't fit-in!
 SOLO
 CHOROUS 2 times :P
 Give me, one good, reason!
 Why we, need to, be like them!
 Kids will, have fun and offend!
 They don't, want to and don't fit-in!

 Give me, one good, reason!
 Why we, need to, be like them!
 Kids will, have fun and offend!
 They don't, want to and don't fit-in!
Tap to rate this tab
# A B C D E F G H I J K L M N O P Q R S T U V W X Y Z