Song name
# A B C D E F G H I J K L M N O P Q R S T U V W X Y Z

Blink 182 - Anthem Part Two tab

Blink-182 - Anthem, Pt. 2

INTRO:

Guitar 1 - [0:00]
e|-----1----1----1----1----1----1----1----1----|
B|--3----3----1----1----0----0----1----1-------|
G|---------------------------------------------|  x4
D|---------------------------------------------|
A|---------------------------------------------|
E|---------------------------------------------|

Guitar 2 - [0:00]
e|------------|
B|------------|
G|------------|  x3
D|--5-5-5-5---|
A|--3-3-3-3---|
E|------------|


Intro, Pt. 2:

Guitar 2 - [0:19]
e|-------------------------------------------------------------|
B|-------------------------------------------------------------|
G|-------------------------------------------------------------| x3
D|------0h3-----2------0h3-----2------0h3-----2------0------0--|
A|--3-3-----3-3----3-3-----3-3----3-3-----3-3----3-3----3-3----|
E|-------------------------------------------------------------|
 PM . .     . .    . .     . .    . .     . .    . .    . .

e|-------------------------------------------------------------|
B|-------------------------------------------------------------|
G|-------------------------------------------------------------|
D|------0h3-----2------0h3-----2------0h3-----2--5555---5555---| x1
A|--3-3-----3-3----3-3-----3-3----3-3-----3-3----3333---3333---|
E|-------------------------------------------------------------|
 PM . .     . .    . .     . .    . .     . .

Guitar 3 - [0:19]
e|----------------------------------------|
B|----------------------------------------|
G|----------------------------------------| x4
D|-----------------------------33333333---|
A|--33333333-55555555-00000000------------|
E|----------------------------------------|
 PM ........ ........ ........ ........

Guitar 2 - [0:38]
e|---------------------------------------------------|
B|---------------------------------------------------|
G|--11-11-11-12-12-12-11-11-11-5--5--5--7--7--7--7---| x3
D|--x--x--x--x--x--x--x--x--x--x--x--x--x--x--x--x---|
A|--9--9--9--10-10-10-9--9--9--3--3--3--5--5--5--5---|
E|---------------------------------------------------|

e|---------------------------------------------|
B|---------------------------------------------|
G|--11-11-11-12-12-12-5--5--5--5--5--5--5--5---|
D|--x--x--x--x--x--x--x--x--x--x--x--x--x--x---|
A|--9--9--9--10-10-10-3--3--3--3--3--3--3--3---|
E|---------------------------------------------|


Verse 1:

Guitar 2 - [0:56]
e|---------------|
B|---------------|
G|--11-11-11-5---|
D|--x--x--x--x---|
A|--9--9--9--3---|
E|---------------|

Guitar 3 - [0:57]
e|----------------------------------------|
B|----------------------------------------|
G|----------------------------------------|  x2
D|----------------------------------------|
A|--33333333-333333333-00000000-----------|
E|------------------------------11111111--|
 PM ........ ......... ........ ........

Bass Part for Guitar - [1:06]
e|------------------------------|
B|------------------------------|
G|------------------------------|
D|------------------------------|
A|------7---------5---------3---|
E|---5-----5---3-----3---1------|


Verse 2:

Guitar 2 - [1:10]
e|------|
B|------|
G|--5~--
D|--x---
A|--3~--
E|------

Guitar 2 - [1:19]
e|---------------|
B|---------------|
G|--11-11-11-5---|
D|--x--x--x--x---|
A|--9--9--9--3---|
E|---------------|

Guitar 3 - [1:20]
e|----------------------------------------|
B|----------------------------------------|
G|----------------------------------------|  x2
D|----------------------------------------|
A|--33333333-333333333-00000000-----------|
E|------------------------------11111111--|
 PM ........ ......... ........ ........

Bass Part for Guitar - [1:29]
e|------------------------------|
B|------------------------------|
G|------------------------------|
D|------------------------------|
A|------7---------5---------3---|
E|---5-----5---3-----3---1------|


Chorus:

Guitar 2 - [1:34]
e|-------------------------------------------|
B|-------------------------------------------|
G|--5-555555--5-555555--5-555555--7-777777---|  x2
D|--x-xxxxxx--x-xxxxxx--x-xxxxxx--x-xxxxxx---|
A|--3-333333--3-333333--3-333333--5-555555---|
E|-------------------------------------------|

e|----------------------------------------|
B|----------------------------------------|
G|----------------------------------------|
D|----------------------------------------|
A|--33333333-33333333-00000000------------|
E|-----------------------------11111111---|
 PM ........ ........ ........ ........

Guitar 3 - [1:34]
e|----------------------------------------|
B|----------------------------------------|
G|----------------------------------------|  x3
D|-----------------------------33333333---|
A|--33333333-55555555-00000000------------|
E|----------------------------------------|
 PM ........ ........ ........ ........

Guitar 2 & 3 - [1:48]
e|----------------|
B|----------------|
G|----------------|
D|-----------5~---|
A|--33333333-3~---|
E|----------------|
 PM ........

Guitar 2 - [1:50]
e|---------------------------------------------------|
B|---------------------------------------------------|
G|--11-11-11-12-12-12-11-11-11-5--5--5--7--7--7--7---| x3
D|--x--x--x--x--x--x--x--x--x--x--x--x--x--x--x--x---|
A|--9--9--9--10-10-10-9--9--9--3--3--3--5--5--5--5---|
E|---------------------------------------------------|

e|----------------------------------------------|
B|----------------------------------------------|
G|--11-11-11-12-12-12-5--5--5--5--5--5--5--5~---|
D|--x--x--x--x--x--x--x--x--x--x--x--x--x--x----|
A|--9--9--9--10-10-10-3--3--3--3--3--3--3--3~---|
E|----------------------------------------------|


Verse 3:

Guitar 2 - [2:08]
e|---------------|
B|---------------|
G|--11-11-11-5---|
D|--x--x--x--x---|
A|--9--9--9--3---|
E|---------------|

Guitar 3 - [2:09]
e|----------------------------------------|
B|----------------------------------------|
G|----------------------------------------|  x2
D|----------------------------------------|
A|--33333333-333333333-00000000-----------|
E|------------------------------11111111--|
 PM ........ ......... ........ ........

Bass Part for Guitar - [2:18]
e|------------------------------|
B|------------------------------|
G|------------------------------|
D|------------------------------|
A|------7---------5---------3---|
E|---5-----5---3-----3---1------|


Chorus:

Guitar 2 - [2:22]
e|-------------------------------------------|
B|-------------------------------------------|
G|--5-555555--5-555555--5-555555--7-777777---|  x2
D|--x-xxxxxx--x-xxxxxx--x-xxxxxx--x-xxxxxx---|
A|--3-333333--3-333333--3-333333--5-555555---|
E|-------------------------------------------|

e|----------------------------------------|
B|----------------------------------------|
G|----------------------------------------|
D|----------------------------------------|
A|--33333333-33333333-00000000------------|
E|-----------------------------11111111---|
 PM ........ ........ ........ ........

Guitar 3 - [2:22]
e|----------------------------------------|
B|----------------------------------------|
G|----------------------------------------|  x3
D|-----------------------------33333333---|
A|--33333333-55555555-00000000------------|
E|----------------------------------------|
 PM ........ ........ ........ ........

Guitar 2 & 3 - [2:37]
e|----------------|
B|----------------|
G|----------------|
D|-----------5~---|
A|--33333333-3~---|
E|----------------|
 PM ........


Guitar 4 - [2:57]
e|--5-555555---|
B|--5-555555---|
G|-------------|  x6
D|-------------|
A|-------------|
E|-------------|


Chorus:

Guitar 2 - [3:07]
e|-------------------------------------------|
B|-------------------------------------------|
G|--5-555555--5-555555--5-555555--7-777777---|  x2
D|--x-xxxxxx--x-xxxxxx--x-xxxxxx--x-xxxxxx---|
A|--3-333333--3-333333--3-333333--5-555555---|
E|-------------------------------------------|

e|----------------------------------------|
B|----------------------------------------|
G|----------------------------------------|
D|----------------------------------------|
A|--33333333-33333333-00000000------------|
E|-----------------------------11111111---|
 PM ........ ........ ........ ........

Guitar 3 - [3:07]
e|----------------------------------------|
B|----------------------------------------|
G|----------------------------------------|  x3
D|-----------------------------33333333---|
A|--33333333-55555555-00000000------------|
E|----------------------------------------|
 PM ........ ........ ........ ........

Guitar 2 & 3 - [3:21]
e|---------------|
B|---------------|
G|---------------|
D|-----------5---|
A|--33333333-3---|
E|---------------|
 PM ........


Outro

Guitar 2 - [3:23]
e|-------------------------------------------------------------|
B|-------------------------------------------------------------|
G|-------------------------------------------------------------| x3
D|------0h3-----2------0h3-----2------0h3-----2------0------0--|
A|--3-3-----3-3----3-3-----3-3----3-3-----3-3----3-3----3-3----|
E|-------------------------------------------------------------|
 PM . .     . .    . .     . .    . .     . .    . .    . .

e|-----------------------------------------------------|
B|-----------------------------------------------------|
G|-----------------------------------------------------|
D|------0h3-----2------0h3-----2------0h3-----2--3~----|
A|--3-3-----3-3----3-3-----3-3----3-3-----3-3----3~----|
E|-----------------------------------------------1~----|
 PM . .     . .    . .     . .    . .     . .

Guitar 1 - [3:32]
e|-----1----1----1----1----1----1----1----1----|
B|--3----3----1----1----0----0----1----1-------|
G|---------------------------------------------|
D|---------------------------------------------|
A|---------------------------------------------|
E|---------------------------------------------|

e|-----1----1----1----1----1----1--1~---|
B|--3----3----1----1----0----0-----1~---|
G|---------------------------------0~---|
D|--------------------------------------|
A|--------------------------------------|
E|--------------------------------------|
Tap to rate this tab
# A B C D E F G H I J K L M N O P Q R S T U V W X Y Z