Song name
# A B C D E F G H I J K L M N O P Q R S T U V W X Y Z

Blink 182 - Anthem Part 2 tab

Song : Anthem Part 2
Tabbed By: Yahya Bakhtiar
Email : loserkid@skateboarder-online.com

Intro Part 1 : Play 4X

E||------------------------------------------------------------------------||
B||-8---8---6---6---5---5---5---5------------------------------------------||
G||---5---5---5---5---5---6---6--------------------------------------------||
D||------------------------------------------------------------------------||
A||------------------------------------------------------------------------||
E||------------------------------------------------------------------------||

Intro Part 2 : On 5th time of Intro Part 1, Intro Part 2 comes in. Play 4X

E||------------------------------------------------------------------------||
B||------------------------------------------------------------------------||
G||------------------------------------------------------------------------||
D||-----0h3-----2-----0h3-----2-----0h3-----2-----0-----0------------------||
A||-3-3-----3-3---3-3-----3-3---3-3-----3-3---3-3---3-3--------------------||
E||------------------------------------------------------------------------||

Intro Part 3 : Play 1X after Intro Part 2

E||------------------------------------------------------------------------||
B||------------------------------------------------------------------------||
G||-3-3-3--3-3-3-----9-9-9---6-6-6-6---9-9-9---6-6-6-6---9-9-9---6-6-6-6---||
D||-5-5-5--5-5-5-----x-x-x---x-x-x-x---x-x-x---x-x-x-x---x-x-x---x-x-x-x---||
A||-5-5-5--5-5-5-----7-7-7---4-4-4-4---7-7-7---4-4-4-4---7-7-7---4-4-4-4---||
E||------------------------------------------------------------------------||

E||------------------------------------------------------------------------||
B||------------------------------------------------------------------------||
G||-9---6-6-6---5----------------------------------------------------------||
D||-x---x-x-x---x~~~~~-----------------------------------------------------||
A||-7---4-4-4---3----------------------------------------------------------||
E||------------------------------------------------------------------------||

Verse : For second and third verses play 

E||---------||
B||---------||
G||---5-----||
D||---x~~~--||
A||---3-----||
E||---------||

Verse : Bass and drums play

Verse : Play this right before you start the palm muted stuff 

E||-----------||
B||-----------||
G||-9-6-6-6-6-||
D||-x-x-x-x-x-||
A||-7-4-4-4-4-||
E||-----------||

Verse : Play this 2X

E||------------------------------------------------------------------------||
B||------------------------------------------------------------------------||
G||-6-6-6-6-6-6-6-6--------------------------------------------------------||
D||-6-6-6-6-6-6-6-6-5-5-5-5-5-5-5-5-7-7-7-7-7-7-7-7-3-3-3-3-3-3-3-3--------||
A||-4-4-4-4-4-4-4-4-5-5-5-5-5-5-5-5-7-7-7-7-7-7-7-7-3-3-3-3-3-3-3-3--------||
E||-----------------3-3-3-3-3-3-3-3-5-5-5-5-5-5-5-5-1-1-1-1-1-1-1-1--------||
    PM-------------------------------------------------------------

Chorus : Play 3X & on the 3rd time Palm mute 

E||------------------------------------------------------------------------||
B||------------------------------------------------------------------------||
G||-5-5-5-5--4-4-4-4--6-6-6-6--3-3-3-3-------------------------------------||
D||-5-5-5-5--4-4-4-4--6-6-6-6--3-3-3-3-------------------------------------||
A||-3-3-3-3--2-2-2-2--4-4-4-4--1-1-1-1-------------------------------------||
E||------------------------------------------------------------------------||

Chorus : At the end of the chorus, as the music stops, the guitar's last note to 
play w/ the other instruments is 

E||---||
B||---||
G||-3-||
D||-3-||
A||-1-||
E||---||

Interlude : At the beginning let the bass and drums play, after the 2nd time that Tom sings 
"Everything has fallen to pieces." start playing over & over until the end of the interlude
 
E||---||
B||---||
G||-5-||
D||-5-||
A||-3-||
E||---||

Ending : You can either play Part 1 all the way, or play Part 2 as well.

Ending Part 1 : Play 2X - With Part 2 or 4X - Until the end

E||------------------------------------------------------------------------||
B||------------------------------------------------------------------------||
G||------------------------------------------------------------------------||
D||-----0h3-----2-----0h3-----2-----0h3-----2-----0-----0------------------||
A||-3-3-----3-3---3-3-----3-3---3-3-----3-3---3-3---3-3--------------------||
E||------------------------------------------------------------------------||

Ending Part 2 : Optional Start playing when Ending Part 1 reaches the 3rd time Play 2X

E||------------------------------------------------------------------------||
B||-8---8---6---6---5---5---5---5------------------------------------------||
G||---5---5---5---5---5---6---6--------------------------------------------||
D||------------------------------------------------------------------------||
A||------------------------------------------------------------------------||
E||------------------------------------------------------------------------||

Order : 

Intro Part 1 | Intro Part 2 | Intro Part 3 | Verse | Verse | Chorus | Intro Part 3 |
Verse | Chorus | Interlude | Chorus | Ending Part 1 | Ending Part 2 (if you want to)
Tap to rate this tab
# A B C D E F G H I J K L M N O P Q R S T U V W X Y Z