Song name
# A B C D E F G H I J K L M N O P Q R S T U V W X Y Z

Blink 182 - " Time To Break Up " tab

-----------------------------------------------------------------------------------------
                             Time to Break up -Blink 182
-----------------------------------------------------------------------------------------

by: Daniel(PunkDudez471@AOL.com)

INTRO
e]--------------------------------------------------------------------------------------]
B]--------------------------------------------------------------------------------------]
G]--------------------------------------------------------------------------------------]
D]--6-6--6--4-4--4--3-3--3--6-6------3-3-1-1-----3-3-1-1-----3-3-1-1--4-x-x-6-----------]
A]--6-6--6--4-4--4--3-3--3--6-6--4-4---------4-4----------------------4-x-x-6-----------]
E]--4-4--4--2-2--2--1-1--1--4-4--------------------------4-4----------2-x-x-4-----------]

VERSE
e]--------------------------------------------------------------------------------------]
B]--------------------------------------------------------------------------------------]
G]--6-------10-10-10-10-8-8-11-11-10-10-10-10-8-8--66-66--------------------------------]
D]--x-(16x)--x--x--x--x-x-x--x--x--x--x--x--x-x-x--66-66--------------------------------]
A]--4--------8--8--8--8-6-6--9--9--8--8--8--8-6-6--44-44--------------------------------]
E]--------------------------------------------------------------------------------------]

CHORUS
e]--------------------------------------------------------------------------------------]
B]--------------------------------------------------------------------------------------]
G]--6-----------------------------------------------------------------------------------]
D]--6-(16x)--3--------4--------6--------------------------------------------------------]
A]--4--------3-(16x)--4-(16x)--6--------------------------------------------------------]
E]-----------1--------2--------4--------------------------------------------------------]

BRIDGE
e]--------------------------------------------------------------------------------------]
B]--------------------------------------------------------------------------------------]
G]--------------------------------------------------------------6-6-----6-6-------------]
D]----6---6---6-------------------------------------------------6-6-6-6-6-6-6-6--66-66--]
A]--4---4---4---4----3---3---3------4---4---4------6---6---6----4-4-6-6-4-4-6-6--66-66--]E]-----------------1---1---1---1--2---2---2---2--4---4---4---4------4-4-----4-4--44-44--]

-----------------------------------------------------------------------------------------
Tap to rate this tab
 
# A B C D E F G H I J K L M N O P Q R S T U V W X Y Z