Song name
# A B C D E F G H I J K L M N O P Q R S T U V W X Y Z

Blink 182 - Whats My Age Again? tab

Intro and Verse 1
1-------------------------------------------------------------
2--------11--------11--------11--------11---------------------
3-----11---11---11----11---11---11---11--11-------------------  x8
4---9---------------------------------------------------------
5--------------9----------------------------------------------
6-----------------------9----------11-------------------------
Chorus
1-------------------------------------------------------------
2-------------------------------------------------------------
3---------6-6---8---4-4-4----------6-6-------(8---)(6---)-----
4---4-----6-6---8---4-4-4--x3-4----6-6-------(8-x8)(6-x8)-4---
5---4-----4-4---6---2-2-2-----4----4-4-------(6---)(4---)-2---
6---2-------------------------2---------------------------2---
Pre Verse 2
1-------------------------------------------------------------
2--------11--------11--------11--------11---------------------
3-----11---11---11----11---11---11---11--11-------------------  
4---9---------------------------------------------------------
5--------------9----------------------------------------------
6-----------------------9----------11-------------------------
Verse 2(all off this is palm muted)
1----------------------------------------------------------------------------
2----------------------------------------------------------------------------
3---(4---)----------(6---)--(8---)------(4---)--------(6---)-(8---)-(6---)---
4---(4-x8)--(4---)--(6-x8)--(8-x8)--x2--(4-x8)-(4---)-(6-x8)-(8-x8)-(6-x8)----
5---(2---)--(4-x8)--(4---)--(6---)------(2---)-(4-x8)-(4---)-(6---)-(4---)---
6-----------(2---)-----------------------------(2---)------------------------
Solo
1--------------------------------------------------------------------------
2-------11--------11------11--------11-------------------------------------
3----------11-------11------11----11---------------------------------11----
4----9------------------------------------------8-9-------------8-9-----x6-
5------------9---------------------------9-9-9-9----x4--9-9-9-9------------
6-----------------------9-------11-----------------------------------------
Chorus and outro
1-------------------------------------------------------------
2-------------------------------------------------------------
3---------6-6---8---4-4-4----------6-6-------(8---)(6---)-----
4---4-----6-6---8---4-4-4--x3-4----6-6-------(8-x8)(6-x8)-4---(x3 2chorus 1 solo)
5---4-----4-4---6---2-2-2-----4----4-4-------(6---)(4---)-2---
6---2-------------------------2---------------------------2---
 
And thats it if you fing any mistakes give your self a pack on the back..........


Tap to rate this tab
# A B C D E F G H I J K L M N O P Q R S T U V W X Y Z