Song name
# A B C D E F G H I J K L M N O P Q R S T U V W X Y Z

Blink 182 - Man Overboard tab

Here it is email me if its wrong
gezzalinko@hotmail.com

Man Overboard

Intro 
Come in after bass has gone twice
E|--------------------------------|   |--------------------------------|
B|--------------------------------|   |--------------------------------|
G|--------------------------------|   |--------------------------------|
D|----------------5555555555555555| x3|----------------555555557r------|
A|55555555777777773333333333333333|   |5555555577777777333333335r------|
E|3333333355555555----------------|   |3333333355555555----------------|

Riff 1
E|---------------------------------------------|
B|---------------------------------------------|
G|---------------------------------------------|
D|---------------------------------------------|
A|--0-2-3-2----0-2-3-2-0---0-2-3-2----0-2-3-2-0|x2
E|3----------------------0---------------------|

Riff2
E|------------------------|
B|------------------------|
G|0-0---------------------|
D|--------0---0-0-2-0-----|x4
A|----2-3---------------3-|
E|------------------------|

Verse 1
Palm Muted
E|--------------------------------|
B|--------------------------------|
G|--------------------------------|
D|------------------------55555555|x2
A|55555555555555552222222233333333|
E|333333333333333300000000--------|

Chorus
E|----------------------------|
B|----------------------------|
G|----------------------------|
D|-------7-7-7-7-------5-5-5-5|x2
A|5-5-5-55-5-5-52-2-2-23-3-3-3|
E|3-3-3-3-------0-0-0-0-------|

Riff 1
E|---------------------------------------------|
B|---------------------------------------------|
G|---------------------------------------------|
D|---------------------------------------------|
A|--0-2-3-2----0-2-3-2-0---0-2-3-2----0-2-3-2-0|x2
E|3----------------------0---------------------|

Verse 2
Palm Muted
E|------------------------|
B|------------------------|
G|------------------------|
D|--5--5--5--5--5--5--5--5|x2
A|------------------33-33-|
E|33-33-33-33-00-00-------|

Chorus
E|----------------------------|
B|----------------------------|
G|----------------------------|
D|-------7-7-7-7-------5-5-5-5|x2
A|5-5-5-55-5-5-52-2-2-23-3-3-3|
E|3-3-3-3-------0-0-0-0-------|

Riff 3
E|----------------|  |--------------------------------|
B|----------------|  |--------------------------------|
G|----------------|  |--------------------------------|
D|--------5-------|  |----------------5-5-5-5-5-5-5-5-|
A|5--s7---3-------|x2|5-5-5-5-7-7-7-7-3-3-3-3-3-3-3-3-|
E|3--s5-----------|  |3-3-3-3-5-5-5-5-----------------|

E|-------------------------------|
B|-------------------------------|
G|-------------------------------|
D|----------------5-5-5-5-7-7-7-7|
A|5-5-5-5-7-7-7-7-3-3-3-3-5-5-5-5|
E|3-3-3-3-5-5-5-5----------------|

Riff 1
E|---------------------------------------------|
B|---------------------------------------------|
G|---------------------------------------------|
D|---------------------------------------------|
A|--0-2-3-2----0-2-3-2-0---0-2-3-2----0-2-3-2-0|x2
E|3----------------------0---------------------|

Riff2
E|------------------------|
B|------------------------|
G|0-0---------------------|
D|--------0---0-0-2-0-----|x4
A|----2-3---------------3-|
E|------------------------|

Outro
E|----------------------------------------------------------------|
B|----------------------------------------------------------------|
G|----------------------------------------------------------------|
D|----------------7-7-7-7-7-7-7-7-----------------5-5-5-5-5-5-5-5-|
A|5-5-5-5-5-5-5-5-5-5-5-5-5-5-5-5-5-5-5-5-7-7-7-7-3-3-3-3-3-3-3-3-|
E|3-3-3-3-3-3-3-3-----------------3-3-3-3-5-5-5-5-----------------|

E|----------------------------------------------------------------|
B|----------------------------------------------------------------|
G|----------------------------------------------------------------|
D|----------------7-7-7-7-7-7-7-7-----------------5-5-5-5-7-7-7-7-|
A|5-5-5-5-5-5-5-5-5-5-5-5-5-5-5-5-5-5-5-5-7-7-7-7-3-3-3-3-5-5-5-5-|
E|3-3-3-3-3-3-3-3-----------------3-3-3-3-5-5-5-5-----------------|

End on
E|-|
B|-|
G|-|
D|-|
A|5|
E|3|
Tap to rate this tab
# A B C D E F G H I J K L M N O P Q R S T U V W X Y Z