Song name
# A B C D E F G H I J K L M N O P Q R S T U V W X Y Z

Blink 182 - Dammit tab

Intro
------------------------------------------------
------------------------------------------------
------------------------------------------------
------------------------------------------------
-3-3-5-5-7-----5-5-7-0-0-5-5-7-----7-7-5--------
-----------3-3-----------------1-1--------------x4

Verse
------------------------------------------------
------------------------------------------------
-5-5555555--------------------------------------
-5-5555555-5-5555555-7-7777777-3-3333333--------
-3-3333333-5-5555555-7-7777777-3-3333333--------
-----------3-3333333-5-5555555-1-1111111--------x2
pm.......   .......   .......   .......

------------------------------------------------
------------------------------------------------
-5----------------------------------------------
-5---------5---------7---------3----------------
-3---------5---------7---------3----------------
-----------3---------5---------1----------------x2

Intro
------------------------------------------------
------------------------------------------------
------------------------------------------------
------------------------------------------------
-3-3-5-5-7-----5-5-7-0-0-5-5-7-----7-7-5--------
-----------3-3-----------------1-1--------------x2

Verse
------------------------------------------------
------------------------------------------------
-5-5555555--------------------------------------
-5-5555555-5-5555555-7-7777777-3-3333333--------
-3-3333333-5-5555555-7-7777777-3-3333333--------
-----------3-3333333-5-5555555-1-1111111--------x2
pm .......   .......   .......   .......

------------------------------------------------
------------------------------------------------
-5----------------------------------------------
-5---------5---------7---------3----------------
-3---------5---------7---------3----------------
-----------3---------5---------1----------------x2

Chorus
------------------------------------------------
------------------------------------------------
-55555555---------------------------------------
-55555555--55555555--77777777--33333333---------
-33333333--55555555--77777777--33333333---------
-----------33333333--55555555--11111111---------x2

Intro
------------------------------------------------
------------------------------------------------
------------------------------------------------
------------------------------------------------
-3-3-5-5-7-----5-5-7-0-0-5-5-7-----7-7-5--------
-----------3-3-----------------1-1--------------x2

Verse
------------------------------------------------
------------------------------------------------
-5-5555555--------------------------------------
-5-5555555-5-5555555-7-7777777-3-3333333--------
-3-3333333-5-5555555-7-7777777-3-3333333--------
-----------3-3333333-5-5555555-1-1111111--------x2
pm .......   .......   .......   .......

------------------------------------------------
------------------------------------------------
-5----------------------------------------------
-5---------5---------7---------3----------------
-3---------5---------7---------3----------------
-----------3---------5---------1----------------x2

Chorus
------------------------------------------------
------------------------------------------------
-55555555---------------------------------------
-55555555--55555555--77777777--33333333---------
-33333333--55555555--77777777--33333333---------
-----------33333333--55555555--11111111---------x2

Solo
----------------------------------------------------------------
-5-----3-5----5-----3-5---3-5----5-----3-5-----5-----3-5---3-5--
---5-------5----5-------5-----5----5-------5-----5-------5-----5
-----5------------5------------------5-------5-----5------------
----------------------------------------------------------------
----------------------------------------------------------------

Outro
------------------------------------------------
------------------------------------------------
------------------------------------------------
------------------------------------------------
3-3-5-5-7-----5-5-7-0-0-5-5-7-----7-7-5---------
----------3-3-----------------1-1---------------x4
Tap to rate this tab
 
# A B C D E F G H I J K L M N O P Q R S T U V W X Y Z