Song name
# A B C D E F G H I J K L M N O P Q R S T U V W X Y Z

Blink 182 - Man Overboard tab

I really dont know the order but just listen to the song you'll find out.i thinks its right.

Man Overboard

Intro 
Come in after bass has gone twice
E|--------------------------------|   |--------------------------------|
B|--------------------------------|   |--------------------------------|
G|----------------5555555555555555|   |----------------555555557-------|
D|55555555777777775555555555555555| x3|5555555577777777555555557r------|
A|55555555777777773333333333333333|   |5555555577777777333333335r------|
E|3333333355555555----------------|   |3333333355555555----------------|

Riff 1
E|-----------------------------------------------|
B|-----------------------------------------------|
G|-----------------------------------------------|
D|-----------------------------------------------|
A|---2-3-2-----2-3-2-0---------2-3-2-----2-3-2-0-|   x2
E|33----------------------00---------------------|

Riff2
E|------------------------|
B|------------------------|
G|------------------------|
D|-5----------------------|x4
A|----2-3-5----5-5-6-5--3-|
E|------------------------|

Verse 1
Palm Muted
E|--------------------------------|
B|--------------------------------|
G|------------------------55555555|
D|55555555555555552222222255555555|x2
A|55555555555555552222222233333333|
E|333333333333333300000000--------|

Chorus
E|----------------------------|   
E|----------------------------|
B|----------------------------|
G|-------7-7-7-7-------5-5-5-5|
D|5-5-5-57-7-7-72-2-2-25-5-5-5|x2
A|5-5-5-55-5-5-52-2-2-23-3-3-3|
E|3-3-3-3-------0-0-0-0-------|
  
             or 
i've heard people say both,you be the judge.
     
B|----------------------------|
G|-------7-7-7-7-------5-5-5-5|       
D|5-5-5-57-7-7-77-7-7-25-5-5-5|x2
A|5-5-5-55-5-5-57-7-7-23-3-3-3|
E|3-3-3-3-------5-5-5-5-------|








Riff 1
E|-----------------------------------------------|
B|-----------------------------------------------|
G|-----------------------------------------------|
D|-----------------------------------------------|
A|---2-3-2-----2-3-2-0---------2-3-2-----2-3-2-0-|   x2
E|33----------------------00---------------------|

Verse 2
Palm Muted
E|------------------------|
B|------------------------|
G|------------------------|
D|--5--5--5--5--5--5--5--5|x2
A|------------------33-33-|
E|33-33-33-33-00-00-------|

Chorus
E|----------------------------|
B|----------------------------|
G|----------------------------|
D|-------7-7-7-7-------5-5-5-5|x2
A|5-5-5-55-5-5-52-2-2-23-3-3-3|
E|3-3-3-3-------0-0-0-0-------|

                or
B|----------------------------|
G|-------7-7-7-7-------5-5-5-5|       
D|5-5-5-57-7-7-77-7-7-25-5-5-5|x2
A|5-5-5-55-5-5-57-7-7-23-3-3-3|
E|3-3-3-3-------5-5-5-5-------|


Riff 3
E|----------------|  |--------------------------------|
B|----------------|  |--------------------------------|
G|--------5-------|  |----------------5-5-5-5-5-5-5-5-|
D|5--s7---5-------|  |5-5-5-5-7-7-7-7-5-5-5-5-5-5-5-5-|
A|5--s7---3-------|x2|5-5-5-5-7-7-7-7-3-3-3-3-3-3-3-3-|
E|3--s5-----------|  |3-3-3-3-5-5-5-5-----------------|

E|-------------------------------|
B|-------------------------------|
G|----------------5-5-5-5-7-7-7-7|
D|5-5-5-5-7-7-7-7-5-5-5-5-7-7-7-7|
A|5-5-5-5-7-7-7-7-3-3-3-3-5-5-5-5|
E|3-3-3-3-5-5-5-5----------------|

Riff 1
E|-----------------------------------------------|
B|-----------------------------------------------|
G|-----------------------------------------------|
D|-----------------------------------------------|
A|---2-3-2-----2-3-2-0---------2-3-2-----2-3-2-0-|   x2
E|33----------------------00---------------------|

Riff2
E|------------------------|
B|------------------------|
G|------------------------|
D|-5----------------------|x4
A|----2-3-5----5-5-6-5--3-|
E|------------------------|

"man on a Misson...." part
E|----------------------------------------------------------------|
B|----------------------------------------------------------------|
G|----------------5-5-5-5-5-5-5-5-----------------5-5-5-5-5-5-5-5-|
D|5-5-5-5-5-5-5-5-5-5-5-5-5-5-5-5-5-5-5-5-5-5-5-5-5-5-5-5-5-5-5-5-|
A|5-5-5-5-5-5-5-5-3-3-3-3-3-3-3-3-5-5-5-5-5-5-5-5-3-3-3-3-3-3-3-3-|
E|3-3-3-3-3-3-3-3-----------------3-3-3-3-3-3-3-3-----------------|


End on
E|-|
B|-|
G|-|
D|5|
A|5|
E|3|

for anymore tabs by punk/popunk and some alteritave bands e-mail me at Blinkpunker7@aol.com
 
Tap to rate this tab
 
# A B C D E F G H I J K L M N O P Q R S T U V W X Y Z