Guitaretab - guitar tabs
Song name
# A B C D E F G H I J K L M N O P Q R S T U V W X Y Z

Blink 182 - Wasting Time tab

Wasting Time
	Blink 182
		From Cheshire Cat
			Tabbed by SJ (kirei_008@hotmail.com)

Intro
-----------------------------------------------------------
-----------------------------------------------------------
-----------------------------------------------------------
------9-7-6-------6-7-9-7-6-------6---6-7-6----------------
----7--------0-0------------7-------------------9---9-7----
--0---------------------------9-9---9-------7-7---7--------
[ Tab from: http://www.guitaretab.com/b/blink-182/24183.html ]
Verse- Palm Mute
--------------------------------------
--------------------------------------
--------------------------------------
--------------------66666666-44444444-
--22222222-77777777-44444444-22222222-
--00000000-55555555-------------------

Chorus
-----------------------------
-----------------------------
-*---------------------------	3
-1-------------6666-444444---
-1--777-222222-4444-222222---
-1--555-000000---------------

	*(Hand Mute)

-------------------------------------------------
------------------------------------------------- 
-*----------------------------------------------- 
-1-------------6666666666-4444444444------------- 
-1--777-222222-4444444444-2222222222--7777777777- 
-1--555-000000------------------------5555555555- 

-5-----5-5-----
---5-------5---
-----6-------6-	
---------------
---------------
---------------

Related for Wasting Time tab