Guitaretab - guitar tabs
Song name
# A B C D E F G H I J K L M N O P Q R S T U V W X Y Z

Blink 182 - First Date tab

Artist: Blink 182
Album: Take Off Your Pants And Jacket
Title: First Date


The whole song is played with distortion.

Intro:

[Guitar One]                                                                 
E|-0----------|-------------|-------------|-------------|
B|--1-----1---|-3-1-----1---|-3-1-----1---|-3-1-0-------|
G|----0-----0-|-----0---ó-0-|-----0-----0-|-------------| x2
D|------------|-------------|-------------|-------------|
A|------------|-------------|-------------|-------------|
E|------------|-------------|-------------|-------------|

[Guitar Two w/ Guitar One]
       C5                 D5                 F5                G5
E|-----------------|-----------------|------------------|------------------|
B|-----------------|-----------------|------------------|------------------|
G|-5-5-5-5-5-5-5-5-|-7-7-7-7-7-7-7-7-|-1010101010101010-|-1212121212121212-| x2
D|-5-5-5-5-5-5-5-5-|-7-7-7-7-7-7-7-7-|-1010101010101010-|-1212121212121212-|
A|-3-3-3-3-3-3-3-3-|-5-5-5-5-5-5-5-5-|-8 8 8 8 8 8 8 8 -|-1010101010101010-|
E|-----------------|-----------------|------------------|------------------|

Verse:

  C5
E|---|
B|---|
G|-5-|
D|-5-|  <---Hold
A|-3-|
E|---|
    In the car I just canít wait...


  |<-------------------------Palm-Muted------------------------>|
E|-------|-------|-------|-------|-------|-------|-------|-------|
B|-------|-------|-------|-------|-------|-------|-------|-------|
G|-5-5-5-|-5-5-5-|-5-5-5-|-5-5-5-|-5-5-5-|-5-5-5-|-5-5-5-|-5-5-5-| x2
D|-------|-------|-------|-------|-------|-------|-------|-------|
A|-------|-------|-------|-------|-------|-------|-------|-------|
E|-------|-------|-------|-------|-------|-------|-------|-------|
     Do you like my stupid hair...


Pre Chorus:

     C5                B5               A5                F5      G5
E|-----------------|-----------------|-----------------|-----------------|
B|-----------------|-----------------|-----------------|-----------------|
G|-5-5-5-----------|-5-5-5-----------|-2-2-2-2-2-2-2-2-|-----------------|
D|-5-5-5-----------|-5-5-5-----------|-2-2-2-2-2-2-2-2-|-3---3-/-5---5---| x2
A|-3-3-3-----------|-2-2-2-----------|-0-0-0-0-0-0-0-0-|-3---3-/-5---5---|
E|-----------------|-----------------|-----------------|-1---1-/-3---3---|
        Let's go...       Donít wait...       This nightís almost over...

Chorus:

     C5                B5               A5                F5      G5
E|-----------------|-----------------|-----------------|-----------------|
B|-----------------|-----------------|-----------------|-----------------|
G|-5-5-5-5-5-5-5-5-|-5-5-5-5-5-5-5-5-|-2-2-2-2-2-2-2-2-|-3---3-/-5---5---| x2
D|-5-5-5-5-5-5-5-5-|-5-5-5-5-5-5-5-5-|-2-2-2-2-2-2-2-2-|-3---3-/-5---5---|
A|-3-3-3-3-3-3-3-3-|-2-2-2-2-2-2-2-2-|-0-0-0-0-0-0-0-0-|-1---1-/-3---3---|
E|-----------------|-----------------|-----------------|-----------------|
       Forever ,         and ever...
[Play Intro, Verse, Pre-Chorus and Chorus again]


Interulde:

[Guitar One]
  |<-----------------------Palm-Muted--------------------------->|
        C5               E5             F5               G5
E|---------------|---------------|---------------|-----------------|
B|---------------|---------------|---------------|-----------------|
G|-5-5-5-5-5-5-5-|---------------|---------------|-----------------| x6
D|-5-5-5-5-5-5-5-|-2-2-2-2-2-2-2-|-3-3-3-3-3-3-3-|-5-5-5-5-5-5-5-5-|
A|-3-3-3-3-3-3-3-|-2-2-2-2-2-2-2-|-3-3-3-3-3-3-3-|-5-5-5-5-5-5-5-5-|
E|---------------|-0-0-0-0-0-0-0-|-1-1-1-1-1-1-1-|-3-3-3-3-3-3-3-3-|

[Guitar Two w/ Guitar One - after the first two times]
       C5             E5     C5       F5      C5         D5        C5 
E|---------------|---------------|----------------|-------------------|
B|---------------|---------------|----------------|-------------------|
G|-5-5-5-5-5-5-5-|-9-9-9-9\5-5-5-|-10101010\5-5-5-|-7-7-7-7-7-7-7-7\5-| x4
D|-5-5-5-5-5-5-5-|-9-9-9-9\5-5-5-|-10101010\5-5-5-|-7-7-7-7-7-7-7-7\5-|
A|-3-3-3-3-3-3-3-|-7-7-7-7\3-3-3-|-8 8 8 8 \3-3-3-|-5-5-5-5-5-5-5-5\3-|
E|---------------|---------------|----------------|-------------------|

[Play Pre-Chorus and Chorus, and then the Outro below here]

Outro:

[Guitar One]                                                               
E|-0----------|-------------|-------------|-------------|
B|--1-----1---|-3-1-----1---|-3-1-----1---|-3-1-0-------|
G|----0-----0-|-----0---ó-0-|-----0-----0-|-------------| x2
D|------------|-------------|-------------|-------------|
A|------------|-------------|-------------|-------------|
E|------------|-------------|-------------|-------------|
       Forever ,      and ever...                                          

[Guitar Two w/ Guitar One]
        C5                 B5                A5           F5      G5
E|-----------------|-----------------|-----------------|-----------------|
B|-----------------|-----------------|-----------------|-----------------|
G|-5-5-5-5-5-5-5-5-|-5-5-5-5-5-5-5-5-|-2-2-2-2-2-2-2-2-|-3---3-/-5---5---| x2
D|-5-5-5-5-5-5-5-5-|-5-5-5-5-5-5-5-5-|-2-2-2-2-2-2-2-2-|-3---3-/-5---5---|
A|-3-3-3-3-3-3-3-3-|-2-2-2-2-2-2-2-2-|-0-0-0-0-0-0-0-0-|-1---1-/-3---3---|
E|-----------------|-----------------|-----------------|-----------------|


[Guitar One ends on]
E|---|
B|-1-|
G|---|
D|---|  <---Hold until fade
A|---|
E|---|

[Guitar Two w/ Guitar One ends on]
  C5
E|---|
B|---|
G|-5-|
D|-5-|  <---Hold until fade
A|-3-|
E|---|

[ Tab from: http://www.guitaretab.com/b/blink-182/24188.html ]
Related for First Date tab