Song name
# A B C D E F G H I J K L M N O P Q R S T U V W X Y Z

Blink 182 - The Rock Show tab

Band: Blink 182
Song: The Rock Show
Tabbed By: Atticus890
Played In: Standard Tuning
Comments: here's the 100% correct way to play it.

Legend:
         ~~~ = Let note right
         * * = Palm mute
	 

Intro Part 1 (Distortion) : Play 2X


E|---------------------------------------------------------|
B|---------------------------------------------------------|
G|---------------------------------------------------------|
D|--------2~~~~-0~~~~------------------2~~~~-0~~~~---2-----|
A|-0--0-0---0-0---0-0-4-0-5-0---0--0-0---0-0---0-0-4---4-0-|
E|---------------------------------------------------------|

Intro Part 2 (Distortion) : Play 1X


E|---------------------------------|
B|---------------------------------|
G|---------------------------------|
D|---------------------------------|
A|-7-7-7-7-7-7-7-7-7-7-7-7-7-7-7-7-|
E|-5-5-5-5-5-5-5-5-5-5-5-5-5-5-5-5-|
   * * * * * * * * * * * * * * * *

1st Verse (Distortion) : Play 2X


E|---------------------------------------------------------------------|
B|---------------------------------------------------------------------|
G|-------------------------------------7---------------9---------------|
D|-7-----------------------------------7--7-7-7-7-7-7--9--9-9-9-9-9-9--|
A|-7--7-7-7-7-7-7-7-7-7-7-7-7-7-7-7-7--5--5-5-5-5-5-5--7--7-7-7-7-7-7--|
E|-5--5-5-5-5-5-5-5-5-5-5-5-5-5-5-5-5----------------------------------|
      * * * * * * * * * * * * * * * *     * * * * * *     * * * * * *

Repeat Intro Part 1: 2X


2nd Verse (Distortion) : Play 1X

E|-----------------|
B|-----------------|
G|-----------------|
D|-7~~~~~~~~~~~~~~-|
A|-7~~~~~~~~~~~~~~-|
E|-5~~~~~~~~~~~~~~-|


Chorus Part 1 (Distortion) : Play 3X 


E|----------------------------|
B|----------------------------|
G|------------------x--7--7-x-|
D|-7-7-7--7\5--4--4-x--7--7-x-|
A|-7-7-7--7\5--4--4-x--5--5-x-|
E|-5-5-5--5\3--2--2-----------|


Chorus Part 2 (Distortion): Play 1X

E|---------------------------------------------------------------------------------------------|
B|---------------------------------------------------------------------------------------------|
G|---------------------------------------------------------------------------------------7---7-|
D|---------------------7-7-7-7-7-7-7-7--9-9-9-9-9-9-9-9--7-7-7-7-7-7-7--9-9-9-9-9-9-9-9--7---7-|
A|-5--2-2-2-2-2-2-2-2--5-5-5-5-5-5-5-5--7-7-7-7-7-7-7-7--5-5-5-5-5-5-5--7-7-7-7-7-7-7-7--5---4-|
E|-3--0-0-0-0-0-0-0-0--------------------------------------------------------------------------|
      * * * * * * * *  * * * * * * * *  * * * * * * * *  * * * * * * *  * * * * * * * *

Repeat Intro: 2X


Verse 2: Same as Verse 1


Repeat Chorus Parts 1 & 2


Interlude Part 1 (Clean) : Play 4X


E|---------------------|
B|-2--------2-----3----|
G|----2--------2-----2-|
D|---------------------|
A|---------------------|
E|---------------------|

Interlude Part 2 (Distortion) : Play 1X
    
     "And If I ever got another chance..."
E|--------------------------2-2-2-2-2-2-2-2-2-2-2-2----------------------------------------------------|
B|--------------------------2-2-2-2-2-2-2-2-2-2-2-2----------------------------------------------------|
G|--------------------------2-2-2-2-2-2-2-2-2-2-2-2--2-2-2-2-2-2-2-2-2-2-2-2---------------7-7-7-7-7-7-|
D|-4-4-4-4-4-4-4-4-4-4-4-4--0-0-0-0-0-0-0-0-0-0-0-0--2-2-2-2-2-2-2-2-2-2-2-2--2-2-2-2-2-2--7-7-7-7-7-7-|
A|-4-4-4-4-4-4-4-4-4-4-4-4---------------------------0-0-0-0-0-0-0-0-0-0-0-0--2-2-2-2-2-2--5-5-5-5-5-5-|
E|-2-2-2-2-2-2-2-2-2-2-2-2----------------------------------------------------0-0-0-0-0-0--------------|

Repeat Chorus Parts 1 & 2

Repeat Intro till fade


Tap to rate this tab
 
# A B C D E F G H I J K L M N O P Q R S T U V W X Y Z