Song name
# A B C D E F G H I J K L M N O P Q R S T U V W X Y Z

Blink 182 - Josie tab

Song: "Josie"
Band: blink-182
Album: Dude Ranch
Performed by: Mark Hoppus (bass, vocals), Tom DeLonge (Guitar),
and Scott Raynor (drums)
Tabbed by: Braden
Comments: I was sick and tired of not finding the right tabulature 
for this song, or getting only a chord version. Some had the right chords, but no the right number 
of times.  This is a VERY simple song that is perfect for beginners.
Questions? Comments? sk8man87@hotmail.com

Intro (let ring throughout)
e|-----------------------------------------------------------------|
B|-----------------------------------------------------------------|
G|-4-4-4-4---------------------------------------------------------|
D|-4-4-4-4---------------------------------------------------------|
A|-2-2-2-2--2-2-2-2-2-2-2-2--2-2-2-2-2-----------------------------|
E|-----------------------------------------------------------------|
                            |this is during the the drum roll right 
                            |before Mark starts singing|

Verse Part A (Yeah, my girlfriend..)
e|-----------------------------------------------------------------|
B|-----------------------------------------------------------------|
G|-4-4-4-4-4-4-4-4-------------------------------------------------|
D|-4-4-4-4-4-4-4-4--4-4-4-4-4-4-4-4-2-2-2-2-2-2-2-2-2-2-2-2-2-2-2-2|
A|-2-2-2-2-2-2-2-2--4-4-4-4-4-4-4-4-2-2-2-2-2-2-2-2-2-2-2-2-2-2-2-2|
E|------------------2-2-2-2-2-2-2-2-0-0-0-0-0-0-0-0-0-0-0-0-0-0-0-0|

Verse Part B (And she doesn't get all jealous...)
e|-----------------------------------------------------------------|
B|-----------------------------------------------------------------|
G|-4-4-4-4-4-4-4-4--6-6-6-6-6-6-6-6-9-9-9-9-9-9-9-9-9-9-9-9-9-9-9-9|
D|-4-4-4-4-4-4-4-4--6-6-6-6-6-6-6-6-9-9-9-9-9-9-9-9-9-9-9-9-9-9-9-9|
A|-2-2-2-2-2-2-2-2--4-4-4-4-4-4-4-4-7-7-7-7-7-7-7-7-7-7-7-7-7-7-7-7|
E|-----------------------------------------------------------------|

Verse Part C (She laughs at my dumb jokes....)
e|-----------------------------------------------------------------|
B|-----------------------------------------------------------------|
G|-4-4-4-4-4-4-4-4-------------------------------------------------|
D|-4-4-4-4-4-4-4-4--4-4-4-4-4-4-4-4-2-2-2-2-2-2-2-2----------------|
A|-2-2-2-2-2-2-2-2--4-4-4-4-4-4-4-4-2-2-2-2-2-2-2-2----------------|
E|------------------2-2-2-2-2-2-2-2-0-0-0-0-0-0-0-0----------------|
                                    |pm............|

Verse Part D (She brings me Mexican food...)
e|-----------------------------------------------------------------|
B|-----------------------------------------------------------------|
G|-4-4-4-4-4-4-4-4--6-6-6-6-6-6-6-6-9-9-9-9-9-9-9-9-9-9-9-9-9-9-9-9|
D|-4-4-4-4-4-4-4-4--6-6-6-6-6-6-6-6-9-9-9-9-9-9-9-9-9-9-9-9-9-9-9-9|
A|-2-2-2-2-2-2-2-2--4-4-4-4-4-4-4-4-7-7-7-7-7-7-7-7-7-7-7-7-7-7-7-7|
E|-----------------------------------------------------------------|

Interlude A (Yeah just because...)
e|------------------------|
B|------------------------|
G|-4-4-4-4-4-4-4-4-4-4-4-4|
D|-4-4-4-4-4-4-4-4-4-4-4-4|
A|-2-2-2-2-2-2-2-2-2-2-2-2|
E|------------------------|

Verse Part A (And my girlfriend...)
e|-----------------------------------------------------------------|
B|-----------------------------------------------------------------|
G|-4-4-4-4-4-4-4-4-------------------------------------------------|
D|-4-4-4-4-4-4-4-4--4-4-4-4-4-4-4-4-2-2-2-2-2-2-2-2-2-2-2-2-2-2-2-2|
A|-2-2-2-2-2-2-2-2--4-4-4-4-4-4-4-4-2-2-2-2-2-2-2-2-2-2-2-2-2-2-2-2|
E|------------------2-2-2-2-2-2-2-2-0-0-0-0-0-0-0-0-0-0-0-0-0-0-0-0|

Verse Part B (And she's so smart...)
e|-----------------------------------------------------------------|
B|-----------------------------------------------------------------|
G|-4-4-4-4-4-4-4-4--6-6-6-6-6-6-6-6-9-9-9-9-9-9-9-9-9-9-9-9-9-9-9-9|
D|-4-4-4-4-4-4-4-4--6-6-6-6-6-6-6-6-9-9-9-9-9-9-9-9-9-9-9-9-9-9-9-9|
A|-2-2-2-2-2-2-2-2--4-4-4-4-4-4-4-4-7-7-7-7-7-7-7-7-7-7-7-7-7-7-7-7|
E|-----------------------------------------------------------------|

Verse Part C (Quite half as much...)
e|-----------------------------------------------------------------|
B|-----------------------------------------------------------------|
G|-4-4-4-4-4-4-4-4-------------------------------------------------|
D|-4-4-4-4-4-4-4-4--4-4-4-4-4-4-4-4-2-2-2-2-2-2-2-2----------------|
A|-2-2-2-2-2-2-2-2--4-4-4-4-4-4-4-4-2-2-2-2-2-2-2-2----------------|
E|------------------2-2-2-2-2-2-2-2-0-0-0-0-0-0-0-0----------------|
                                    |pm............|

Verse Part D (I wonder why...)
e|-----------------------------------------------------------------|
B|-----------------------------------------------------------------|
G|-4-4-4-4-4-4-4-4--6-6-6-6-6-6-6-6-9-9-9-9-9-9-9-9-9-9-9-9-9-9-9-9|
D|-4-4-4-4-4-4-4-4--6-6-6-6-6-6-6-6-9-9-9-9-9-9-9-9-9-9-9-9-9-9-9-9|
A|-2-2-2-2-2-2-2-2--4-4-4-4-4-4-4-4-7-7-7-7-7-7-7-7-7-7-7-7-7-7-7-7|
E|-----------------------------------------------------------------|

Pre-Chorus (And when I feel like giving up....)
e|-----------------------------------------------------------------|
B|-----------------------------------------------------------------|
G|---------------------------------4-4-4-4-4-4-4-4-----------------|
D|-4-4-4-4-4-4-4-4-2-2-2-2-2-2-2-2-4-4-4-4-4-4-4-4-4-4-4-4-4-4-4-4-|
A|-4-4-4-4-4-4-4-4-2-2-2-2-2-2-2-2-2-2-2-2-2-2-2-2-4-4-4-4-4-4-4-4-|
E|-2-2-2-2-2-2-2-2-0-0-0-0-0-0-0-0-----------------2-2-2-2-2-2-2-2-|

Pre-Chorus Cont'd (I show up at 3 am...)
e|-----------------------------------------------------------------|
B|-----------------------------------------------------------------|
G|-6-6-6-6-6-6-6-6-------------------------------------------------|
D|-6-6-6-6-6-6-6-6--2-2-2-2-2-2-2-2-2-2-2-2-2-2-2-2----------------|
A|-4-4-4-4-4-4-4-4--2-2-2-2-2-2-2-2-2-2-2-2-2-2-2-2----------------|
E|------------------0-0-0-0-0-0-0-0-0-0-0-0-0-0-0-0----------------|

Chorus (I know that everything...)
e|------------------------------------------------------------------|
B|------------------------------------------------------------------|
G|-4-4-4-4-4-4-4-4--------------------------------------------------|
D|-4-4-4-4-4-4-4-4--4-4-4-4-4-4-4-4--2-2-2-2-2-2-2-2-6-6-6-6-4-4-4-4|
A|-2-2-2-2-2-2-2-2--4-4-4-4-4-4-4-4--2-2-2-2-2-2-2-2-6-6-6-6-4-4-4-4|
E|------------------2-2-2-2-2-2-2-2--0-0-0-0-0-0-0-0-4-4-4-4-2-2-2-2|
This is done x2.

Verse Part A (Yeah, my girlfriend...)
e|-----------------------------------------------------------------|
B|-----------------------------------------------------------------|
G|-4-4-4-4-4-4-4-4-------------------------------------------------|
D|-4-4-4-4-4-4-4-4--4-4-4-4-4-4-4-4-2-2-2-2-2-2-2-2-2-2-2-2-2-2-2-2|
A|-2-2-2-2-2-2-2-2--4-4-4-4-4-4-4-4-2-2-2-2-2-2-2-2-2-2-2-2-2-2-2-2|
E|------------------2-2-2-2-2-2-2-2-0-0-0-0-0-0-0-0-0-0-0-0-0-0-0-0|

Verse Part B (And it doesn't seem to matter...)
e|-----------------------------------------------------------------|
B|-----------------------------------------------------------------|
G|-4-4-4-4-4-4-4-4--6-6-6-6-6-6-6-6-9-9-9-9-9-9-9-9-9-9-9-9-9-9-9-9|
D|-4-4-4-4-4-4-4-4--6-6-6-6-6-6-6-6-9-9-9-9-9-9-9-9-9-9-9-9-9-9-9-9|
A|-2-2-2-2-2-2-2-2--4-4-4-4-4-4-4-4-7-7-7-7-7-7-7-7-7-7-7-7-7-7-7-7|
E|-----------------------------------------------------------------|

Verse Part C (She laughs at my dumb jokes...)
e|-----------------------------------------------------------------|
B|-----------------------------------------------------------------|
G|-4-4-4-4-4-4-4-4-------------------------------------------------|
D|-4-4-4-4-4-4-4-4--4-4-4-4-4-4-4-4-2-2-2-2-2-2-2-2----------------|
A|-2-2-2-2-2-2-2-2--4-4-4-4-4-4-4-4-2-2-2-2-2-2-2-2----------------|
E|------------------2-2-2-2-2-2-2-2-0-0-0-0-0-0-0-0----------------|
                                    |pm............|

Verse Part D (She brings me Mexican food...)
e|-----------------------------------------------------------------|
B|-----------------------------------------------------------------|
G|-4-4-4-4-4-4-4-4--6-6-6-6-6-6-6-6-9-9-9-9-9-9-9-9-9-9-9-9-9-9-9-9|
D|-4-4-4-4-4-4-4-4--6-6-6-6-6-6-6-6-9-9-9-9-9-9-9-9-9-9-9-9-9-9-9-9|
A|-2-2-2-2-2-2-2-2--4-4-4-4-4-4-4-4-7-7-7-7-7-7-7-7-7-7-7-7-7-7-7-7|
E|-----------------------------------------------------------------|

Pre-Chorus (And when I feel live giving up...)
e|-----------------------------------------------------------------|
B|-----------------------------------------------------------------|
G|---------------------------------4-4-4-4-4-4-4-4-----------------|
D|-4-4-4-4-4-4-4-4-2-2-2-2-2-2-2-2-4-4-4-4-4-4-4-4-4-4-4-4-4-4-4-4-|
A|-4-4-4-4-4-4-4-4-2-2-2-2-2-2-2-2-2-2-2-2-2-2-2-2-4-4-4-4-4-4-4-4-|
E|-2-2-2-2-2-2-2-2-0-0-0-0-0-0-0-0-----------------2-2-2-2-2-2-2-2-|

Pre-Chorus Cont'd (I show up at 3 am...)
e|-----------------------------------------------------------------|
B|-----------------------------------------------------------------|
G|-6-6-6-6-6-6-6-6-------------------------------------------------|
D|-6-6-6-6-6-6-6-6--2-2-2-2-2-2-2-2-2-2-2-2-2-2-2-2----------------|
A|-4-4-4-4-4-4-4-4--2-2-2-2-2-2-2-2-2-2-2-2-2-2-2-2----------------|
E|------------------0-0-0-0-0-0-0-0-0-0-0-0-0-0-0-0----------------|

Chorus (I know that everything...)
e|------------------------------------------------------------------|
B|------------------------------------------------------------------|
G|-4-4-4-4-4-4-4-4--------------------------------------------------|
D|-4-4-4-4-4-4-4-4--4-4-4-4-4-4-4-4--2-2-2-2-2-2-2-2-6-6-6-6-4-4-4-4|
A|-2-2-2-2-2-2-2-2--4-4-4-4-4-4-4-4--2-2-2-2-2-2-2-2-6-6-6-6-4-4-4-4|
E|------------------2-2-2-2-2-2-2-2--0-0-0-0-0-0-0-0-4-4-4-4-2-2-2-2|
This is done x4.

Interlude B (let ring throghout)
e|-----------------------------------------------------------------|
B|-----------------------------------------------------------------|
G|-----------------------------------------------------------------|
D|-----------------------------------------------------------------|
A|---2-2-2-2-2-2-2-2--2-2-2-2-2------------------------------------|
E|-----------------------------------------------------------------|
                      |this is during the the drum roll right 
                      |before Mark starts singing|

Chorus (I know that everything...)
e|------------------------------------------------------------------|
B|------------------------------------------------------------------|
G|-4-4-4-4-4-4-4-4--------------------------------------------------|
D|-4-4-4-4-4-4-4-4--4-4-4-4-4-4-4-4--2-2-2-2-2-2-2-2-6-6-6-6-4-4-4-4|
A|-2-2-2-2-2-2-2-2--4-4-4-4-4-4-4-4--2-2-2-2-2-2-2-2-6-6-6-6-4-4-4-4|
E|------------------2-2-2-2-2-2-2-2--0-0-0-0-0-0-0-0-4-4-4-4-2-2-2-2|
This is done x4.
Tap to rate this tab
# A B C D E F G H I J K L M N O P Q R S T U V W X Y Z