Song name
# A B C D E F G H I J K L M N O P Q R S T U V W X Y Z

Blink 182 - Stay Together For The Kids tab

tuning:
standard tuning
[E-A-D-G-B-E]

INTRO:2x
E--------------------------------------------------------------------------------------
B--------------------------------------------------------------------------------------
G--------------------------------------------------------------------------------------
D------0-----7--0-----4--0-----0-----7--0-----4--0-----0-----4--0-----5--0-----2-----4-
A---5-----5--------5--------4-----4--------4--------2-----2--------2--------0-----0----
E--------------------------------------------------------------------------------------



E--------------------------------------------------------------------------------------
B--------------------------------------------------------------------------------------
G--------------------------------------------------------------------------------------
D-5--4--2--0---------------------------------------------------------------------------
A--------------------------------------------------------------------------------------
E--------------------------------------------------------------------------------------


VERSE:2x
E--------------------------------------------------------------------------------------
B---------3-----------3-----------3-----------3-----------3-----------3-----------3----
G---------2-----------2-----------2-----------2-----------2-----------2-----------2----
D---0--0-----0--0--0-----0--0--0-----0--0--0-----0-------------------------------------
A---------------------------------------------------2--2-----2--2--2-----2--2--2-----2-
E--------------------------------------------------------------------------------------



E--------------------------------------------------------------------------------------
B-------3--------3-----------3-----------3-----------3-----------5-----------5---------
G-------2--------2-----------2-----------2-----------2-----------2-----------2---------
D--------------------------------------------------------------------------------------
A-2--2-----0--0-----0--0--0-----0--0--0-----0--0--0-----0--0--0-----0--0--0-----0--0--0
E--------------------------------------------------------------------------------------



E--------------------------------------------------------------------------------------
B--2-----------2-----------------------------------------------------------------------
G--2-----------2-----------------------------------------------------------------------
D--------------------------------------------------------------------------------------
A-----0--0--0-----0--------------------------------------------------------------------
E--------------------------------------------------------------------------------------


CHORUS:4x
E--------------------------------------------------------------------------------------
B---3--3--3--3--3--3--3--3--3--3--3--3--3--3--3--3-3--3--3--3--3--3--3--3--3--3--3--3--
G---4--4--4--4--4--4--4--4--4--4--4--4--4--4--4--2-2--2--2--2--2--2--2--2--2--2--2--2--
D---5--5--5--5--5--5--5--5--5--5--5--5--5--5--5--4-4--4--4--4--4--4--4--4--4--4--4--4--
A---5--5--5--5--5--5--5--5--5--5--5--5--5--5--5--5-5--5--5--5--5--5--5--5--5--5--5--5--
E---3--3--3--3--3--3--3--3--3--3--3--3--3--3--3--5-5--2--2--2--2--2--2--2--2--2--2--2--



E--------------------------------------------------------------------------------------
B-3--3--3------------------------------------------------------------------------------
G-2--2--2------------------------------------------------------------------------------
D-4--4--4------------------------------------------------------------------------------
A-5--5--5--5--5------------------------------------------------------------------------
E-2--2--2--0--2------------------------------------------------------------------------


VERSE 2:2x
E--------------------------------------------------------------------------------------
B--------------------------------------------------------------------------------------
G------2-----2-----2-----2-----2-----2-----2-----2-----2-----2-----2-----2-----2-----2-
D---0-----0------0----0-----0-----0------0----0-----2-----0------0----0-----------2----
A---------------------------2-----------------------0-----------------------0----------
E--------------------------------------------------------------------------------------



E--------------------------------------------------------------------------------------
B----2---------------------------------------------------------------------------------
G----2-----2---------------------------------------------------------------------------
D--2-----2-----------------------------------------------------------------------------
A------0-------------------------------------------------------------------------------
E--------------------------------------------------------------------------------------
Tap to rate this tab
# A B C D E F G H I J K L M N O P Q R S T U V W X Y Z