Song name
# A B C D E F G H I J K L M N O P Q R S T U V W X Y Z

Blink 182 - Dysentery Gary tab


      This song is a great song to learn if you want to do it right, it's  100% correct  all the way if you do it right, if your looking for correct then you have found it right here.
                             
                                  Happy Playing


Intro:
Gtr.1 (dist.)

e-----------------------------------------------------------------------------
B-----------------------------------------------------------------------------
G-----------------------------------------------------------------------------
D---4--4--4--0--0--0--5--5--5--4--4--4--0--0--0--0------------4--4--4---------
A----------------------------------------------------------------------0--0---
E----------------------------------------------------3--3--3------------------

e------------------------------
B------------------------------
G------------------------------
D------------------------------
A---0--4--4--4--4--4--4--0-----
E------------------------------

Riff A: 2 times
Gtr.1

e--------------------------------------------------------------------------------------
B--------------------------------------------------------------------------------------
G---7---7--7--7--7--7----7--7--7--7--7--7--7-------------------------------------------
D---7---7--7--7--7--7----7--7--7--7--7--7--7---5---5--5--5--5--7---7--7--7--7--7--7--7-
A---5---5--5--5--5--5----5--5--5--5--5--5--5---5---5--5--5--5--7---5--5--7--7--7--7--7-
E----------------------------------------------3---3--3--3--3--5---5--5--5--5--5--5--5-

Verse:
Gtr.1

                                  I Got a lot-ta heart - ache.______
e-------------------------------------------------------------------
B-------------------------------------------------------------------
G-------------------------------------------------------------------
D-------------------------------------------------------------------
A----------5--------------------------------------------------------
E-------------------------------------------------------------------

Interlude:

e--------------------------------------------------------------------
B---3---3---3---3---3---3---3---3---3---3---3---3---2---2---2---2----
G---2---2---2---2---2---2---2---2---0---0---0---0---2---2---2---2----
D---0---0---0---0---0---0---0---0---0---0---0---0---2---2---2---2----
A---------------------------------------------------0---0---0---0----
E--------------------------------------------------------------------

Pre-chorus:

    He's    a    player    di  ar  rhe  a  giv   er.
e---------------------------------------------------------------------
B---------------------------------------------------------------------
G---7--7--7--7--7--7--7--7---7--7--7--7--7--7--7---7---7--7--7---7----
D---7--7--7--7--7--7--7--7---7--7--7--7--7--7--7---7---7--7--7---7----
A---5--5--5--5--5--5--5--5---5--5--5--5--5--5--5---5---5--5--5---5----
E---------------------------------------------------------------------

e-------------------------------------------------------------------------
B-------------------------------------------------------------------------
G-------------------------------------------------------------------------
D---5--5---5--5--5--5--5--5--5--5---7---7--7--7---7---7--7--7--7--7---7---
A---5--5---5--5--5--5--5--5--5--5---7---7--7--7---7---7--7--7--7--7---7---
E---3--3---3--3--3--3--3--3--3--3---5---5--5--5---5---5--5--5--5--5---5---

CODA 2:

e------------------------------|---------------|------------------------------
B------------------------------|---------------|------------------------------
G------------------------------|---------------|------------------------------
D---4---(4)-/-5-----4----------|---2-----------|-------------4---(4)-/-5------
A---5--------------------------|-----------0---|-------------5----------------
E------------------------------|-------3-------|------------------------------
                           let ring_____________________
e-------------------------------------------------------|---------------
B-------------------------------------------------------|---------------
G-------------------------------------------------------|---------------
D---(4)-----------2----------------0--------------------|-5-------------
A---(5)-------------------0-----------------------------|-5-------------
E-------------------------------------------------------|-3-------------

Chorus

    Fuck   this place          I   lost    the   war       I  
e-----------------------------------------------------------------------------
B-----------------------------------------------------------------------------
G-----------------------------------------------------------------------------
D---5--5--5--5--5--5--5--5--5--7--7--7--7--7--7--7--7--7--7--7--7--7----------
A---5--5--5--5--5--5--5--5--5--7--7--7--7--7--7--7--7--7--7--7--7--7----------
E---3--3--3--3--3--3--3--3--3--5--5--5--5--5--5--5--5--5--5--5--5--5-----0----

e------------------------------------------------------------------------------------
B------------------------------------------------------------------------------------
G---4--4--4--4--4--4--4--4--4--------------------------------------------------------
D---4--4--4--4--4--4--4--4--4--5--5--5--5--5--5--5--5--5--7--7--7--7--7--7--7--7--7--
A---2--2--2--2--2--2--2--2--2--5--5--5--5--5--5--5--5--5--7--7--7--7--7--7--7--7--7--
E------------------------------3--3--3--3--3--3--3--3--3--5--5--5--5--5--5--5--5--5--

e--------------------------------------------------------------------------------
B----------------------------------------------------------------------------7---
G---------------------------------------------------------7------------------7---
D---4--4--4--0--0--0--5--5--5--4--4--4--------------------7------------------7---
A---------------------------------------------------5-----5------------------5---
E--------------------------------------3-/-5--5--5-------------------------------

Song Order:

Intro
Verse
Introlude
Pre-chorus
Intro
Verse
Intrlude
Pre-chorus
Introlude 2
Coda 2
Chorus

Song Time= 2:45 min.

Tap to rate this tab
# A B C D E F G H I J K L M N O P Q R S T U V W X Y Z